ISO-10303-21;
HEADER;
/* Generated by software containing ST-Developer
 * from STEP Tools, Inc. (www.steptools.com) 
 */
/* OPTION: using custom renumber hook */

FILE_DESCRIPTION(
/* description */ ('STEP AP203'),
/* implementation_level */ '2;1');

FILE_NAME(
/* name */ 'VBP522',
/* time_stamp */ '2024-05-15T08:39:05+02:00',
/* author */ ('License CC BY-ND 4.0'),
/* organization */ ('CADENAS'),
/* preprocessor_version */ 'ST-DEVELOPER v19.3',
/* originating_system */ 'PARTsolutions',
/* authorisation */ '  ');

FILE_SCHEMA (('CONFIG_CONTROL_DESIGN'));
ENDSEC;

DATA;
#10=PROPERTY_DEFINITION_REPRESENTATION(#14,#12);
#11=PROPERTY_DEFINITION_REPRESENTATION(#15,#13);
#12=REPRESENTATION('',(#16),#393);
#13=REPRESENTATION('',(#17),#393);
#14=PROPERTY_DEFINITION('pmi validation property','',#398);
#15=PROPERTY_DEFINITION('pmi validation property','',#398);
#16=VALUE_REPRESENTATION_ITEM('number of annotations',COUNT_MEASURE(0.));
#17=VALUE_REPRESENTATION_ITEM('number of views',COUNT_MEASURE(0.));
#18=SHAPE_REPRESENTATION_RELATIONSHIP('','',#239,#19);
#19=ADVANCED_BREP_SHAPE_REPRESENTATION('',(#237),#393);
#20=PLANE('',#244);
#21=PLANE('',#248);
#22=PLANE('',#252);
#23=PLANE('',#256);
#24=PLANE('',#257);
#25=PLANE('',#260);
#26=LINE('',#336,#42);
#27=LINE('',#340,#43);
#28=LINE('',#342,#44);
#29=LINE('',#344,#45);
#30=LINE('',#346,#46);
#31=LINE('',#350,#47);
#32=LINE('',#354,#48);
#33=LINE('',#356,#49);
#34=LINE('',#358,#50);
#35=LINE('',#362,#51);
#36=LINE('',#366,#52);
#37=LINE('',#368,#53);
#38=LINE('',#370,#54);
#39=LINE('',#374,#55);
#40=LINE('',#378,#56);
#41=LINE('',#379,#57);
#42=VECTOR('',#271,1000.);
#43=VECTOR('',#274,1000.);
#44=VECTOR('',#277,1000.);
#45=VECTOR('',#278,1000.);
#46=VECTOR('',#279,1000.);
#47=VECTOR('',#284,1000.);
#48=VECTOR('',#289,1000.);
#49=VECTOR('',#290,1000.);
#50=VECTOR('',#291,1000.);
#51=VECTOR('',#296,1000.);
#52=VECTOR('',#301,1000.);
#53=VECTOR('',#302,1000.);
#54=VECTOR('',#303,1000.);
#55=VECTOR('',#308,1000.);
#56=VECTOR('',#313,1000.);
#57=VECTOR('',#314,1000.);
#58=ORIENTED_EDGE('',*,*,#114,.T.);
#59=ORIENTED_EDGE('',*,*,#115,.F.);
#60=ORIENTED_EDGE('',*,*,#116,.F.);
#61=ORIENTED_EDGE('',*,*,#117,.T.);
#62=ORIENTED_EDGE('',*,*,#118,.T.);
#63=ORIENTED_EDGE('',*,*,#119,.F.);
#64=ORIENTED_EDGE('',*,*,#120,.F.);
#65=ORIENTED_EDGE('',*,*,#115,.T.);
#66=ORIENTED_EDGE('',*,*,#121,.T.);
#67=ORIENTED_EDGE('',*,*,#122,.F.);
#68=ORIENTED_EDGE('',*,*,#123,.F.);
#69=ORIENTED_EDGE('',*,*,#119,.T.);
#70=ORIENTED_EDGE('',*,*,#124,.T.);
#71=ORIENTED_EDGE('',*,*,#125,.F.);
#72=ORIENTED_EDGE('',*,*,#126,.F.);
#73=ORIENTED_EDGE('',*,*,#122,.T.);
#74=ORIENTED_EDGE('',*,*,#127,.T.);
#75=ORIENTED_EDGE('',*,*,#128,.F.);
#76=ORIENTED_EDGE('',*,*,#129,.F.);
#77=ORIENTED_EDGE('',*,*,#125,.T.);
#78=ORIENTED_EDGE('',*,*,#130,.T.);
#79=ORIENTED_EDGE('',*,*,#131,.F.);
#80=ORIENTED_EDGE('',*,*,#132,.F.);
#81=ORIENTED_EDGE('',*,*,#128,.T.);
#82=ORIENTED_EDGE('',*,*,#133,.T.);
#83=ORIENTED_EDGE('',*,*,#134,.F.);
#84=ORIENTED_EDGE('',*,*,#135,.F.);
#85=ORIENTED_EDGE('',*,*,#131,.T.);
#86=ORIENTED_EDGE('',*,*,#136,.T.);
#87=ORIENTED_EDGE('',*,*,#117,.F.);
#88=ORIENTED_EDGE('',*,*,#137,.F.);
#89=ORIENTED_EDGE('',*,*,#134,.T.);
#90=ORIENTED_EDGE('',*,*,#138,.F.);
#91=ORIENTED_EDGE('',*,*,#139,.F.);
#92=ORIENTED_EDGE('',*,*,#116,.T.);
#93=ORIENTED_EDGE('',*,*,#120,.T.);
#94=ORIENTED_EDGE('',*,*,#123,.T.);
#95=ORIENTED_EDGE('',*,*,#126,.T.);
#96=ORIENTED_EDGE('',*,*,#129,.T.);
#97=ORIENTED_EDGE('',*,*,#132,.T.);
#98=ORIENTED_EDGE('',*,*,#135,.T.);
#99=ORIENTED_EDGE('',*,*,#137,.T.);
#100=ORIENTED_EDGE('',*,*,#140,.T.);
#101=ORIENTED_EDGE('',*,*,#141,.T.);
#102=ORIENTED_EDGE('',*,*,#114,.F.);
#103=ORIENTED_EDGE('',*,*,#136,.F.);
#104=ORIENTED_EDGE('',*,*,#133,.F.);
#105=ORIENTED_EDGE('',*,*,#130,.F.);
#106=ORIENTED_EDGE('',*,*,#127,.F.);
#107=ORIENTED_EDGE('',*,*,#124,.F.);
#108=ORIENTED_EDGE('',*,*,#121,.F.);
#109=ORIENTED_EDGE('',*,*,#118,.F.);
#110=ORIENTED_EDGE('',*,*,#139,.T.);
#111=ORIENTED_EDGE('',*,*,#141,.F.);
#112=ORIENTED_EDGE('',*,*,#138,.T.);
#113=ORIENTED_EDGE('',*,*,#140,.F.);
#114=EDGE_CURVE('',#142,#143,#162,.T.);
#115=EDGE_CURVE('',#144,#143,#26,.T.);
#116=EDGE_CURVE('',#145,#144,#163,.T.);
#117=EDGE_CURVE('',#145,#142,#27,.T.);
#118=EDGE_CURVE('',#143,#146,#28,.T.);
#119=EDGE_CURVE('',#147,#146,#29,.T.);
#120=EDGE_CURVE('',#144,#147,#30,.T.);
#121=EDGE_CURVE('',#146,#148,#164,.T.);
#122=EDGE_CURVE('',#149,#148,#31,.T.);
#123=EDGE_CURVE('',#147,#149,#165,.T.);
#124=EDGE_CURVE('',#148,#150,#32,.T.);
#125=EDGE_CURVE('',#151,#150,#33,.T.);
#126=EDGE_CURVE('',#149,#151,#34,.T.);
#127=EDGE_CURVE('',#150,#152,#166,.T.);
#128=EDGE_CURVE('',#153,#152,#35,.T.);
#129=EDGE_CURVE('',#151,#153,#167,.T.);
#130=EDGE_CURVE('',#152,#154,#36,.T.);
#131=EDGE_CURVE('',#155,#154,#37,.T.);
#132=EDGE_CURVE('',#153,#155,#38,.T.);
#133=EDGE_CURVE('',#154,#156,#168,.T.);
#134=EDGE_CURVE('',#157,#156,#39,.T.);
#135=EDGE_CURVE('',#155,#157,#169,.T.);
#136=EDGE_CURVE('',#156,#142,#40,.T.);
#137=EDGE_CURVE('',#157,#145,#41,.T.);
#138=EDGE_CURVE('',#158,#158,#170,.T.);
#139=EDGE_CURVE('',#159,#159,#171,.T.);
#140=EDGE_CURVE('',#160,#160,#172,.T.);
#141=EDGE_CURVE('',#161,#161,#173,.T.);
#142=VERTEX_POINT('',#334);
#143=VERTEX_POINT('',#335);
#144=VERTEX_POINT('',#337);
#145=VERTEX_POINT('',#339);
#146=VERTEX_POINT('',#343);
#147=VERTEX_POINT('',#345);
#148=VERTEX_POINT('',#349);
#149=VERTEX_POINT('',#351);
#150=VERTEX_POINT('',#355);
#151=VERTEX_POINT('',#357);
#152=VERTEX_POINT('',#361);
#153=VERTEX_POINT('',#363);
#154=VERTEX_POINT('',#367);
#155=VERTEX_POINT('',#369);
#156=VERTEX_POINT('',#373);
#157=VERTEX_POINT('',#375);
#158=VERTEX_POINT('',#382);
#159=VERTEX_POINT('',#384);
#160=VERTEX_POINT('',#387);
#161=VERTEX_POINT('',#389);
#162=CIRCLE('',#242,1.99999999999999);
#163=CIRCLE('',#243,1.99999999999999);
#164=CIRCLE('',#246,2.);
#165=CIRCLE('',#247,2.);
#166=CIRCLE('',#250,2.);
#167=CIRCLE('',#251,2.);
#168=CIRCLE('',#254,2.);
#169=CIRCLE('',#255,2.);
#170=CIRCLE('',#258,1.65);
#171=CIRCLE('',#259,1.65);
#172=CIRCLE('',#261,1.65);
#173=CIRCLE('',#262,1.65);
#174=EDGE_LOOP('',(#58,#59,#60,#61));
#175=EDGE_LOOP('',(#62,#63,#64,#65));
#176=EDGE_LOOP('',(#66,#67,#68,#69));
#177=EDGE_LOOP('',(#70,#71,#72,#73));
#178=EDGE_LOOP('',(#74,#75,#76,#77));
#179=EDGE_LOOP('',(#78,#79,#80,#81));
#180=EDGE_LOOP('',(#82,#83,#84,#85));
#181=EDGE_LOOP('',(#86,#87,#88,#89));
#182=EDGE_LOOP('',(#90));
#183=EDGE_LOOP('',(#91));
#184=EDGE_LOOP('',(#92,#93,#94,#95,#96,#97,#98,#99));
#185=EDGE_LOOP('',(#100));
#186=EDGE_LOOP('',(#101));
#187=EDGE_LOOP('',(#102,#103,#104,#105,#106,#107,#108,#109));
#188=EDGE_LOOP('',(#110));
#189=EDGE_LOOP('',(#111));
#190=EDGE_LOOP('',(#112));
#191=EDGE_LOOP('',(#113));
#192=FACE_BOUND('',#174,.T.);
#193=FACE_BOUND('',#175,.T.);
#194=FACE_BOUND('',#176,.T.);
#195=FACE_BOUND('',#177,.T.);
#196=FACE_BOUND('',#178,.T.);
#197=FACE_BOUND('',#179,.T.);
#198=FACE_BOUND('',#180,.T.);
#199=FACE_BOUND('',#181,.T.);
#200=FACE_BOUND('',#182,.T.);
#201=FACE_BOUND('',#183,.T.);
#202=FACE_BOUND('',#184,.T.);
#203=FACE_BOUND('',#185,.T.);
#204=FACE_BOUND('',#186,.T.);
#205=FACE_BOUND('',#187,.T.);
#206=FACE_BOUND('',#188,.T.);
#207=FACE_BOUND('',#189,.T.);
#208=FACE_BOUND('',#190,.T.);
#209=FACE_BOUND('',#191,.T.);
#210=CYLINDRICAL_SURFACE('',#241,1.99999999999999);
#211=CYLINDRICAL_SURFACE('',#245,2.);
#212=CYLINDRICAL_SURFACE('',#249,2.);
#213=CYLINDRICAL_SURFACE('',#253,2.);
#214=CYLINDRICAL_SURFACE('',#263,1.65);
#215=CYLINDRICAL_SURFACE('',#264,1.65);
#216=ADVANCED_FACE('',(#192),#210,.T.);
#217=ADVANCED_FACE('',(#193),#20,.F.);
#218=ADVANCED_FACE('',(#194),#211,.T.);
#219=ADVANCED_FACE('',(#195),#21,.F.);
#220=ADVANCED_FACE('',(#196),#212,.T.);
#221=ADVANCED_FACE('',(#197),#22,.F.);
#222=ADVANCED_FACE('',(#198),#213,.T.);
#223=ADVANCED_FACE('',(#199),#23,.F.);
#224=ADVANCED_FACE('',(#200,#201,#202),#24,.T.);
#225=ADVANCED_FACE('',(#203,#204,#205),#25,.F.);
#226=ADVANCED_FACE('',(#206,#207),#214,.F.);
#227=ADVANCED_FACE('',(#208,#209),#215,.F.);
#228=CLOSED_SHELL('',(#216,#217,#218,#219,#220,#221,#222,#223,#224,#225,
#226,#227));
#229=STYLED_ITEM('',(#230),#237);
#230=PRESENTATION_STYLE_ASSIGNMENT((#231));
#231=SURFACE_STYLE_USAGE(.BOTH.,#232);
#232=SURFACE_SIDE_STYLE('',(#233));
#233=SURFACE_STYLE_FILL_AREA(#234);
#234=FILL_AREA_STYLE('',(#235));
#235=FILL_AREA_STYLE_COLOUR('',#236);
#236=COLOUR_RGB('',0.689999997615814,0.689999997615814,0.689999997615814);
#237=MANIFOLD_SOLID_BREP('VBP522',#228);
#238=SHAPE_DEFINITION_REPRESENTATION(#398,#239);
#239=SHAPE_REPRESENTATION('VBP522',(#240),#393);
#240=AXIS2_PLACEMENT_3D('',#331,#265,#266);
#241=AXIS2_PLACEMENT_3D('',#332,#267,#268);
#242=AXIS2_PLACEMENT_3D('',#333,#269,#270);
#243=AXIS2_PLACEMENT_3D('',#338,#272,#273);
#244=AXIS2_PLACEMENT_3D('',#341,#275,#276);
#245=AXIS2_PLACEMENT_3D('',#347,#280,#281);
#246=AXIS2_PLACEMENT_3D('',#348,#282,#283);
#247=AXIS2_PLACEMENT_3D('',#352,#285,#286);
#248=AXIS2_PLACEMENT_3D('',#353,#287,#288);
#249=AXIS2_PLACEMENT_3D('',#359,#292,#293);
#250=AXIS2_PLACEMENT_3D('',#360,#294,#295);
#251=AXIS2_PLACEMENT_3D('',#364,#297,#298);
#252=AXIS2_PLACEMENT_3D('',#365,#299,#300);
#253=AXIS2_PLACEMENT_3D('',#371,#304,#305);
#254=AXIS2_PLACEMENT_3D('',#372,#306,#307);
#255=AXIS2_PLACEMENT_3D('',#376,#309,#310);
#256=AXIS2_PLACEMENT_3D('',#377,#311,#312);
#257=AXIS2_PLACEMENT_3D('',#380,#315,#316);
#258=AXIS2_PLACEMENT_3D('',#381,#317,#318);
#259=AXIS2_PLACEMENT_3D('',#383,#319,#320);
#260=AXIS2_PLACEMENT_3D('',#385,#321,#322);
#261=AXIS2_PLACEMENT_3D('',#386,#323,#324);
#262=AXIS2_PLACEMENT_3D('',#388,#325,#326);
#263=AXIS2_PLACEMENT_3D('',#390,#327,#328);
#264=AXIS2_PLACEMENT_3D('',#391,#329,#330);
#265=DIRECTION('',(0.,0.,1.));
#266=DIRECTION('',(1.,0.,0.));
#267=DIRECTION('',(0.,-1.,0.));
#268=DIRECTION('',(0.,0.,-1.));
#269=DIRECTION('',(0.,1.,0.));
#270=DIRECTION('',(1.,0.,0.));
#271=DIRECTION('',(0.,-1.,0.));
#272=DIRECTION('',(0.,1.,0.));
#273=DIRECTION('',(1.,0.,0.));
#274=DIRECTION('',(0.,-1.,0.));
#275=DIRECTION('',(1.,0.,0.));
#276=DIRECTION('',(0.,0.,-1.));
#277=DIRECTION('',(0.,0.,1.));
#278=DIRECTION('',(0.,-1.,0.));
#279=DIRECTION('',(0.,0.,1.));
#280=DIRECTION('',(0.,-1.,0.));
#281=DIRECTION('',(0.,0.,-1.));
#282=DIRECTION('',(0.,1.,0.));
#283=DIRECTION('',(1.,0.,0.));
#284=DIRECTION('',(0.,-1.,0.));
#285=DIRECTION('',(0.,1.,0.));
#286=DIRECTION('',(1.,0.,0.));
#287=DIRECTION('',(0.,0.,-1.));
#288=DIRECTION('',(-1.,0.,0.));
#289=DIRECTION('',(1.,0.,0.));
#290=DIRECTION('',(0.,-1.,0.));
#291=DIRECTION('',(1.,0.,0.));
#292=DIRECTION('',(0.,-1.,0.));
#293=DIRECTION('',(0.,0.,-1.));
#294=DIRECTION('',(0.,1.,0.));
#295=DIRECTION('',(1.,0.,0.));
#296=DIRECTION('',(0.,-1.,0.));
#297=DIRECTION('',(0.,1.,0.));
#298=DIRECTION('',(1.,0.,0.));
#299=DIRECTION('',(-1.,0.,0.));
#300=DIRECTION('',(0.,0.,1.));
#301=DIRECTION('',(0.,0.,-1.));
#302=DIRECTION('',(0.,-1.,0.));
#303=DIRECTION('',(0.,0.,-1.));
#304=DIRECTION('',(0.,-1.,0.));
#305=DIRECTION('',(0.,0.,-1.));
#306=DIRECTION('',(0.,1.,0.));
#307=DIRECTION('',(1.,0.,0.));
#308=DIRECTION('',(0.,-1.,0.));
#309=DIRECTION('',(0.,1.,0.));
#310=DIRECTION('',(1.,0.,0.));
#311=DIRECTION('',(0.,0.,1.));
#312=DIRECTION('',(1.,0.,0.));
#313=DIRECTION('',(-1.,0.,0.));
#314=DIRECTION('',(-1.,0.,0.));
#315=DIRECTION('',(0.,1.,0.));
#316=DIRECTION('',(0.,0.,1.));
#317=DIRECTION('',(0.,1.,0.));
#318=DIRECTION('',(1.,0.,0.));
#319=DIRECTION('',(0.,1.,0.));
#320=DIRECTION('',(1.,0.,0.));
#321=DIRECTION('',(0.,1.,0.));
#322=DIRECTION('',(0.,0.,1.));
#323=DIRECTION('',(0.,1.,0.));
#324=DIRECTION('',(1.,0.,0.));
#325=DIRECTION('',(0.,1.,0.));
#326=DIRECTION('',(1.,0.,0.));
#327=DIRECTION('',(0.,-1.,0.));
#328=DIRECTION('',(0.,0.,-1.));
#329=DIRECTION('',(0.,-1.,0.));
#330=DIRECTION('',(0.,0.,-1.));
#331=CARTESIAN_POINT('',(0.,0.,0.));
#332=CARTESIAN_POINT('',(-9.,2.,-21.5));
#333=CARTESIAN_POINT('',(-9.,0.,-21.5));
#334=CARTESIAN_POINT('',(-9.,0.,-23.5));
#335=CARTESIAN_POINT('',(-11.,0.,-21.5));
#336=CARTESIAN_POINT('',(-11.,2.,-21.5));
#337=CARTESIAN_POINT('',(-11.,2.,-21.5));
#338=CARTESIAN_POINT('',(-9.,2.,-21.5));
#339=CARTESIAN_POINT('',(-9.,2.,-23.5));
#340=CARTESIAN_POINT('',(-9.,2.,-23.5));
#341=CARTESIAN_POINT('',(-11.,2.,-21.5));
#342=CARTESIAN_POINT('',(-11.,0.,-21.5));
#343=CARTESIAN_POINT('',(-11.,0.,21.5));
#344=CARTESIAN_POINT('',(-11.,2.,21.5));
#345=CARTESIAN_POINT('',(-11.,2.,21.5));
#346=CARTESIAN_POINT('',(-11.,2.,-21.5));
#347=CARTESIAN_POINT('',(-9.,2.,21.5));
#348=CARTESIAN_POINT('',(-9.,0.,21.5));
#349=CARTESIAN_POINT('',(-9.,0.,23.5));
#350=CARTESIAN_POINT('',(-9.,2.,23.5));
#351=CARTESIAN_POINT('',(-9.,2.,23.5));
#352=CARTESIAN_POINT('',(-9.,2.,21.5));
#353=CARTESIAN_POINT('',(-9.,2.,23.5));
#354=CARTESIAN_POINT('',(-9.,0.,23.5));
#355=CARTESIAN_POINT('',(9.,0.,23.5));
#356=CARTESIAN_POINT('',(9.,2.,23.5));
#357=CARTESIAN_POINT('',(9.,2.,23.5));
#358=CARTESIAN_POINT('',(-9.,2.,23.5));
#359=CARTESIAN_POINT('',(9.,2.,21.5));
#360=CARTESIAN_POINT('',(9.,0.,21.5));
#361=CARTESIAN_POINT('',(11.,0.,21.5));
#362=CARTESIAN_POINT('',(11.,2.,21.5));
#363=CARTESIAN_POINT('',(11.,2.,21.5));
#364=CARTESIAN_POINT('',(9.,2.,21.5));
#365=CARTESIAN_POINT('',(11.,2.,21.5));
#366=CARTESIAN_POINT('',(11.,0.,21.5));
#367=CARTESIAN_POINT('',(11.,0.,-21.5));
#368=CARTESIAN_POINT('',(11.,2.,-21.5));
#369=CARTESIAN_POINT('',(11.,2.,-21.5));
#370=CARTESIAN_POINT('',(11.,2.,21.5));
#371=CARTESIAN_POINT('',(9.,2.,-21.5));
#372=CARTESIAN_POINT('',(9.,0.,-21.5));
#373=CARTESIAN_POINT('',(9.,0.,-23.5));
#374=CARTESIAN_POINT('',(9.,2.,-23.5));
#375=CARTESIAN_POINT('',(9.,2.,-23.5));
#376=CARTESIAN_POINT('',(9.,2.,-21.5));
#377=CARTESIAN_POINT('',(9.,2.,-23.5));
#378=CARTESIAN_POINT('',(9.,0.,-23.5));
#379=CARTESIAN_POINT('',(9.,2.,-23.5));
#380=CARTESIAN_POINT('',(-9.,2.,-21.5));
#381=CARTESIAN_POINT('',(8.5,2.,-19.));
#382=CARTESIAN_POINT('',(10.15,2.,-19.));
#383=CARTESIAN_POINT('',(-8.5,2.,19.));
#384=CARTESIAN_POINT('',(-6.85,2.,19.));
#385=CARTESIAN_POINT('',(-9.,0.,-21.5));
#386=CARTESIAN_POINT('',(8.5,0.,-19.));
#387=CARTESIAN_POINT('',(10.15,0.,-19.));
#388=CARTESIAN_POINT('',(-8.5,0.,19.));
#389=CARTESIAN_POINT('',(-6.85,0.,19.));
#390=CARTESIAN_POINT('',(-8.5,2.,19.));
#391=CARTESIAN_POINT('',(8.5,2.,-19.));
#392=MECHANICAL_DESIGN_GEOMETRIC_PRESENTATION_REPRESENTATION('',(#229),
#393);
#393=(
GEOMETRIC_REPRESENTATION_CONTEXT(3)
GLOBAL_UNCERTAINTY_ASSIGNED_CONTEXT((#394))
GLOBAL_UNIT_ASSIGNED_CONTEXT((#397,#396,#395))
REPRESENTATION_CONTEXT('VBP522','TOP_LEVEL_ASSEMBLY_PART')
);
#394=UNCERTAINTY_MEASURE_WITH_UNIT(LENGTH_MEASURE(0.005),#397,
'DISTANCE_ACCURACY_VALUE','Maximum Tolerance applied to model');
#395=(
NAMED_UNIT(*)
SI_UNIT($,.STERADIAN.)
SOLID_ANGLE_UNIT()
);
#396=(
NAMED_UNIT(*)
PLANE_ANGLE_UNIT()
SI_UNIT($,.RADIAN.)
);
#397=(
LENGTH_UNIT()
NAMED_UNIT(*)
SI_UNIT(.MILLI.,.METRE.)
);
#398=PRODUCT_DEFINITION_SHAPE('','',#399);
#399=PRODUCT_DEFINITION('','',#401,#400);
#400=DESIGN_CONTEXT('',#407,'design');
#401=PRODUCT_DEFINITION_FORMATION_WITH_SPECIFIED_SOURCE('','',#403,
 .NOT_KNOWN.);
#402=PRODUCT_RELATED_PRODUCT_CATEGORY('','',(#403));
#403=PRODUCT('VBP522','VBP522','VBP522',(#405));
#404=PRODUCT_CATEGORY('','');
#405=MECHANICAL_CONTEXT('',#407,'mechanical');
#406=APPLICATION_PROTOCOL_DEFINITION('international standard',
'config_control_design',2010,#407);
#407=APPLICATION_CONTEXT(
'configuration controlled 3D designs of mechanical parts and assemblie
s');
ENDSEC;
END-ISO-10303-21;
