ISO-10303-21;
HEADER;
/* Generated by software containing ST-Developer
 * from STEP Tools, Inc. (www.steptools.com) 
 */
/* OPTION: using custom renumber hook */

FILE_DESCRIPTION(
/* description */ ('STEP AP203'),
/* implementation_level */ '2;1');

FILE_NAME(
/* name */ 'PSE-M5',
/* time_stamp */ '2024-05-13T08:23:46+02:00',
/* author */ ('License CC BY-ND 4.0'),
/* organization */ ('CADENAS'),
/* preprocessor_version */ 'ST-DEVELOPER v19.3',
/* originating_system */ 'PARTsolutions',
/* authorisation */ '  ');

FILE_SCHEMA (('CONFIG_CONTROL_DESIGN'));
ENDSEC;

DATA;
#10=PROPERTY_DEFINITION_REPRESENTATION(#14,#12);
#11=PROPERTY_DEFINITION_REPRESENTATION(#15,#13);
#12=REPRESENTATION('',(#16),#223);
#13=REPRESENTATION('',(#17),#223);
#14=PROPERTY_DEFINITION('pmi validation property','',#228);
#15=PROPERTY_DEFINITION('pmi validation property','',#228);
#16=VALUE_REPRESENTATION_ITEM('number of annotations',COUNT_MEASURE(0.));
#17=VALUE_REPRESENTATION_ITEM('number of views',COUNT_MEASURE(0.));
#18=SHAPE_REPRESENTATION_RELATIONSHIP('','',#132,#19);
#19=ADVANCED_BREP_SHAPE_REPRESENTATION('',(#130),#223);
#20=CONICAL_SURFACE('',#142,2.5,0.785398163397448);
#21=PLANE('',#138);
#22=PLANE('',#144);
#23=PLANE('',#148);
#24=CYLINDRICAL_SURFACE('',#136,3.31);
#25=CYLINDRICAL_SURFACE('',#140,2.5);
#26=CYLINDRICAL_SURFACE('',#146,1.45);
#27=CYLINDRICAL_SURFACE('',#150,2.31);
#28=ORIENTED_EDGE('',*,*,#46,.F.);
#29=ORIENTED_EDGE('',*,*,#47,.F.);
#30=ORIENTED_EDGE('',*,*,#46,.T.);
#31=ORIENTED_EDGE('',*,*,#48,.F.);
#32=ORIENTED_EDGE('',*,*,#47,.T.);
#33=ORIENTED_EDGE('',*,*,#49,.F.);
#34=ORIENTED_EDGE('',*,*,#48,.T.);
#35=ORIENTED_EDGE('',*,*,#50,.F.);
#36=ORIENTED_EDGE('',*,*,#49,.T.);
#37=ORIENTED_EDGE('',*,*,#51,.F.);
#38=ORIENTED_EDGE('',*,*,#50,.T.);
#39=ORIENTED_EDGE('',*,*,#52,.F.);
#40=ORIENTED_EDGE('',*,*,#51,.T.);
#41=ORIENTED_EDGE('',*,*,#53,.F.);
#42=ORIENTED_EDGE('',*,*,#52,.T.);
#43=ORIENTED_EDGE('',*,*,#54,.F.);
#44=ORIENTED_EDGE('',*,*,#53,.T.);
#45=ORIENTED_EDGE('',*,*,#54,.T.);
#46=EDGE_CURVE('',#55,#55,#64,.T.);
#47=EDGE_CURVE('',#56,#56,#65,.T.);
#48=EDGE_CURVE('',#57,#57,#66,.T.);
#49=EDGE_CURVE('',#58,#58,#67,.T.);
#50=EDGE_CURVE('',#59,#59,#68,.T.);
#51=EDGE_CURVE('',#60,#60,#69,.T.);
#52=EDGE_CURVE('',#61,#61,#70,.T.);
#53=EDGE_CURVE('',#62,#62,#71,.T.);
#54=EDGE_CURVE('',#63,#63,#72,.T.);
#55=VERTEX_POINT('',#196);
#56=VERTEX_POINT('',#199);
#57=VERTEX_POINT('',#202);
#58=VERTEX_POINT('',#205);
#59=VERTEX_POINT('',#208);
#60=VERTEX_POINT('',#211);
#61=VERTEX_POINT('',#214);
#62=VERTEX_POINT('',#217);
#63=VERTEX_POINT('',#220);
#64=CIRCLE('',#135,3.31);
#65=CIRCLE('',#137,3.31);
#66=CIRCLE('',#139,2.5);
#67=CIRCLE('',#141,2.5);
#68=CIRCLE('',#143,2.);
#69=CIRCLE('',#145,1.45);
#70=CIRCLE('',#147,1.45);
#71=CIRCLE('',#149,2.31);
#72=CIRCLE('',#151,2.31);
#73=EDGE_LOOP('',(#28));
#74=EDGE_LOOP('',(#29));
#75=EDGE_LOOP('',(#30));
#76=EDGE_LOOP('',(#31));
#77=EDGE_LOOP('',(#32));
#78=EDGE_LOOP('',(#33));
#79=EDGE_LOOP('',(#34));
#80=EDGE_LOOP('',(#35));
#81=EDGE_LOOP('',(#36));
#82=EDGE_LOOP('',(#37));
#83=EDGE_LOOP('',(#38));
#84=EDGE_LOOP('',(#39));
#85=EDGE_LOOP('',(#40));
#86=EDGE_LOOP('',(#41));
#87=EDGE_LOOP('',(#42));
#88=EDGE_LOOP('',(#43));
#89=EDGE_LOOP('',(#44));
#90=EDGE_LOOP('',(#45));
#91=FACE_BOUND('',#73,.T.);
#92=FACE_BOUND('',#74,.T.);
#93=FACE_BOUND('',#75,.T.);
#94=FACE_BOUND('',#76,.T.);
#95=FACE_BOUND('',#77,.T.);
#96=FACE_BOUND('',#78,.T.);
#97=FACE_BOUND('',#79,.T.);
#98=FACE_BOUND('',#80,.T.);
#99=FACE_BOUND('',#81,.T.);
#100=FACE_BOUND('',#82,.T.);
#101=FACE_BOUND('',#83,.T.);
#102=FACE_BOUND('',#84,.T.);
#103=FACE_BOUND('',#85,.T.);
#104=FACE_BOUND('',#86,.T.);
#105=FACE_BOUND('',#87,.T.);
#106=FACE_BOUND('',#88,.T.);
#107=FACE_BOUND('',#89,.T.);
#108=FACE_BOUND('',#90,.T.);
#109=SPHERICAL_SURFACE('',#134,4.47999999999999);
#110=SPHERICAL_SURFACE('',#152,3.47999999999997);
#111=ADVANCED_FACE('',(#91),#109,.T.);
#112=ADVANCED_FACE('',(#92,#93),#24,.T.);
#113=ADVANCED_FACE('',(#94,#95),#21,.F.);
#114=ADVANCED_FACE('',(#96,#97),#25,.T.);
#115=ADVANCED_FACE('',(#98,#99),#20,.T.);
#116=ADVANCED_FACE('',(#100,#101),#22,.F.);
#117=ADVANCED_FACE('',(#102,#103),#26,.F.);
#118=ADVANCED_FACE('',(#104,#105),#23,.F.);
#119=ADVANCED_FACE('',(#106,#107),#27,.F.);
#120=ADVANCED_FACE('',(#108),#110,.F.);
#121=CLOSED_SHELL('',(#111,#112,#113,#114,#115,#116,#117,#118,#119,#120));
#122=STYLED_ITEM('',(#123),#130);
#123=PRESENTATION_STYLE_ASSIGNMENT((#124));
#124=SURFACE_STYLE_USAGE(.BOTH.,#125);
#125=SURFACE_SIDE_STYLE('',(#126));
#126=SURFACE_STYLE_FILL_AREA(#127);
#127=FILL_AREA_STYLE('',(#128));
#128=FILL_AREA_STYLE_COLOUR('',#129);
#129=COLOUR_RGB('',0.689999997615814,0.689999997615814,0.689999997615814);
#130=MANIFOLD_SOLID_BREP('PSE-M5',#121);
#131=SHAPE_DEFINITION_REPRESENTATION(#228,#132);
#132=SHAPE_REPRESENTATION('PSE-M5',(#133),#223);
#133=AXIS2_PLACEMENT_3D('',#193,#153,#154);
#134=AXIS2_PLACEMENT_3D('',#194,#155,#156);
#135=AXIS2_PLACEMENT_3D('',#195,#157,#158);
#136=AXIS2_PLACEMENT_3D('',#197,#159,#160);
#137=AXIS2_PLACEMENT_3D('',#198,#161,#162);
#138=AXIS2_PLACEMENT_3D('',#200,#163,#164);
#139=AXIS2_PLACEMENT_3D('',#201,#165,#166);
#140=AXIS2_PLACEMENT_3D('',#203,#167,#168);
#141=AXIS2_PLACEMENT_3D('',#204,#169,#170);
#142=AXIS2_PLACEMENT_3D('',#206,#171,#172);
#143=AXIS2_PLACEMENT_3D('',#207,#173,#174);
#144=AXIS2_PLACEMENT_3D('',#209,#175,#176);
#145=AXIS2_PLACEMENT_3D('',#210,#177,#178);
#146=AXIS2_PLACEMENT_3D('',#212,#179,#180);
#147=AXIS2_PLACEMENT_3D('',#213,#181,#182);
#148=AXIS2_PLACEMENT_3D('',#215,#183,#184);
#149=AXIS2_PLACEMENT_3D('',#216,#185,#186);
#150=AXIS2_PLACEMENT_3D('',#218,#187,#188);
#151=AXIS2_PLACEMENT_3D('',#219,#189,#190);
#152=AXIS2_PLACEMENT_3D('',#221,#191,#192);
#153=DIRECTION('',(0.,0.,1.));
#154=DIRECTION('',(1.,0.,0.));
#155=DIRECTION('',(0.,-1.,0.));
#156=DIRECTION('',(1.,0.,0.));
#157=DIRECTION('',(0.,-1.,0.));
#158=DIRECTION('',(0.,0.,-1.));
#159=DIRECTION('',(0.,-1.,0.));
#160=DIRECTION('',(0.,0.,-1.));
#161=DIRECTION('',(0.,-1.,0.));
#162=DIRECTION('',(0.,0.,-1.));
#163=DIRECTION('',(0.,1.,0.));
#164=DIRECTION('',(0.,0.,1.));
#165=DIRECTION('',(0.,-1.,0.));
#166=DIRECTION('',(0.,0.,-1.));
#167=DIRECTION('',(0.,-1.,0.));
#168=DIRECTION('',(0.,0.,-1.));
#169=DIRECTION('',(0.,-1.,0.));
#170=DIRECTION('',(0.,0.,-1.));
#171=DIRECTION('',(0.,1.,0.));
#172=DIRECTION('',(0.,0.,1.));
#173=DIRECTION('',(0.,-1.,0.));
#174=DIRECTION('',(0.,0.,-1.));
#175=DIRECTION('',(0.,1.,0.));
#176=DIRECTION('',(0.,0.,1.));
#177=DIRECTION('',(0.,-1.,0.));
#178=DIRECTION('',(0.,0.,-1.));
#179=DIRECTION('',(0.,-1.,0.));
#180=DIRECTION('',(0.,0.,-1.));
#181=DIRECTION('',(0.,-1.,0.));
#182=DIRECTION('',(0.,0.,-1.));
#183=DIRECTION('',(0.,-1.,0.));
#184=DIRECTION('',(0.,0.,-1.));
#185=DIRECTION('',(0.,-1.,0.));
#186=DIRECTION('',(0.,0.,-1.));
#187=DIRECTION('',(0.,-1.,0.));
#188=DIRECTION('',(0.,0.,-1.));
#189=DIRECTION('',(0.,-1.,0.));
#190=DIRECTION('',(0.,0.,-1.));
#191=DIRECTION('',(0.,-1.,0.));
#192=DIRECTION('',(1.,0.,0.));
#193=CARTESIAN_POINT('',(0.,0.,0.));
#194=CARTESIAN_POINT('',(4.22838847269347E-15,20.18,0.));
#195=CARTESIAN_POINT('',(0.,23.1989898973001,0.));
#196=CARTESIAN_POINT('',(0.,23.1989898973001,-3.31));
#197=CARTESIAN_POINT('',(0.,-50.,0.));
#198=CARTESIAN_POINT('',(0.,4.88,0.));
#199=CARTESIAN_POINT('',(0.,4.88,-3.31));
#200=CARTESIAN_POINT('',(3.31,4.88,0.));
#201=CARTESIAN_POINT('',(0.,4.88,0.));
#202=CARTESIAN_POINT('',(0.,4.88,-2.5));
#203=CARTESIAN_POINT('',(0.,-50.,0.));
#204=CARTESIAN_POINT('',(0.,0.5,0.));
#205=CARTESIAN_POINT('',(0.,0.5,-2.5));
#206=CARTESIAN_POINT('',(0.,0.5,0.));
#207=CARTESIAN_POINT('',(0.,0.,0.));
#208=CARTESIAN_POINT('',(0.,0.,-2.));
#209=CARTESIAN_POINT('',(2.,0.,0.));
#210=CARTESIAN_POINT('',(0.,0.,0.));
#211=CARTESIAN_POINT('',(0.,0.,-1.45));
#212=CARTESIAN_POINT('',(0.,-50.,0.));
#213=CARTESIAN_POINT('',(0.,5.06983507009174,0.));
#214=CARTESIAN_POINT('',(0.,5.06983507009174,-1.45));
#215=CARTESIAN_POINT('',(1.45,5.06983507009174,0.));
#216=CARTESIAN_POINT('',(0.,5.06983507009174,0.));
#217=CARTESIAN_POINT('',(0.,5.06983507009174,-2.31));
#218=CARTESIAN_POINT('',(0.,-50.,0.));
#219=CARTESIAN_POINT('',(0.,22.7827485472093,0.));
#220=CARTESIAN_POINT('',(0.,22.7827485472093,-2.31));
#221=CARTESIAN_POINT('',(1.75640751942652E-14,20.18,0.));
#222=MECHANICAL_DESIGN_GEOMETRIC_PRESENTATION_REPRESENTATION('',(#122),
#223);
#223=(
GEOMETRIC_REPRESENTATION_CONTEXT(3)
GLOBAL_UNCERTAINTY_ASSIGNED_CONTEXT((#224))
GLOBAL_UNIT_ASSIGNED_CONTEXT((#227,#226,#225))
REPRESENTATION_CONTEXT('PSE-M5','TOP_LEVEL_ASSEMBLY_PART')
);
#224=UNCERTAINTY_MEASURE_WITH_UNIT(LENGTH_MEASURE(0.005),#227,
'DISTANCE_ACCURACY_VALUE','Maximum Tolerance applied to model');
#225=(
NAMED_UNIT(*)
SI_UNIT($,.STERADIAN.)
SOLID_ANGLE_UNIT()
);
#226=(
NAMED_UNIT(*)
PLANE_ANGLE_UNIT()
SI_UNIT($,.RADIAN.)
);
#227=(
LENGTH_UNIT()
NAMED_UNIT(*)
SI_UNIT(.MILLI.,.METRE.)
);
#228=PRODUCT_DEFINITION_SHAPE('','',#229);
#229=PRODUCT_DEFINITION('','',#231,#230);
#230=DESIGN_CONTEXT('',#237,'design');
#231=PRODUCT_DEFINITION_FORMATION_WITH_SPECIFIED_SOURCE('','',#233,
 .NOT_KNOWN.);
#232=PRODUCT_RELATED_PRODUCT_CATEGORY('','',(#233));
#233=PRODUCT('PSE-M5','PSE-M5','PSE-M5',(#235));
#234=PRODUCT_CATEGORY('','');
#235=MECHANICAL_CONTEXT('',#237,'mechanical');
#236=APPLICATION_PROTOCOL_DEFINITION('international standard',
'config_control_design',2010,#237);
#237=APPLICATION_CONTEXT(
'configuration controlled 3D designs of mechanical parts and assemblie
s');
ENDSEC;
END-ISO-10303-21;
