ISO-10303-21;
HEADER;
/* Generated by software containing ST-Developer
 * from STEP Tools, Inc. (www.steptools.com) 
 */
/* OPTION: using custom renumber hook */

FILE_DESCRIPTION(
/* description */ ('STEP AP203'),
/* implementation_level */ '2;1');

FILE_NAME(
/* name */ 'PSE-15G',
/* time_stamp */ '2024-05-13T08:27:50+02:00',
/* author */ ('License CC BY-ND 4.0'),
/* organization */ ('CADENAS'),
/* preprocessor_version */ 'ST-DEVELOPER v19.3',
/* originating_system */ 'PARTsolutions',
/* authorisation */ '  ');

FILE_SCHEMA (('CONFIG_CONTROL_DESIGN'));
ENDSEC;

DATA;
#10=PROPERTY_DEFINITION_REPRESENTATION(#14,#12);
#11=PROPERTY_DEFINITION_REPRESENTATION(#15,#13);
#12=REPRESENTATION('',(#16),#203);
#13=REPRESENTATION('',(#17),#203);
#14=PROPERTY_DEFINITION('pmi validation property','',#208);
#15=PROPERTY_DEFINITION('pmi validation property','',#208);
#16=VALUE_REPRESENTATION_ITEM('number of annotations',COUNT_MEASURE(0.));
#17=VALUE_REPRESENTATION_ITEM('number of views',COUNT_MEASURE(0.));
#18=SHAPE_REPRESENTATION_RELATIONSHIP('','',#121,#19);
#19=ADVANCED_BREP_SHAPE_REPRESENTATION('',(#119),#203);
#20=PLANE('',#127);
#21=PLANE('',#131);
#22=PLANE('',#137);
#23=CYLINDRICAL_SURFACE('',#125,12.5);
#24=CYLINDRICAL_SURFACE('',#129,10.478);
#25=CYLINDRICAL_SURFACE('',#135,8.5);
#26=CYLINDRICAL_SURFACE('',#139,6.00000000000001);
#27=ORIENTED_EDGE('',*,*,#43,.F.);
#28=ORIENTED_EDGE('',*,*,#44,.F.);
#29=ORIENTED_EDGE('',*,*,#43,.T.);
#30=ORIENTED_EDGE('',*,*,#45,.F.);
#31=ORIENTED_EDGE('',*,*,#44,.T.);
#32=ORIENTED_EDGE('',*,*,#46,.F.);
#33=ORIENTED_EDGE('',*,*,#45,.T.);
#34=ORIENTED_EDGE('',*,*,#47,.F.);
#35=ORIENTED_EDGE('',*,*,#46,.T.);
#36=ORIENTED_EDGE('',*,*,#48,.T.);
#37=ORIENTED_EDGE('',*,*,#49,.T.);
#38=ORIENTED_EDGE('',*,*,#48,.F.);
#39=ORIENTED_EDGE('',*,*,#50,.T.);
#40=ORIENTED_EDGE('',*,*,#49,.F.);
#41=ORIENTED_EDGE('',*,*,#47,.T.);
#42=ORIENTED_EDGE('',*,*,#50,.F.);
#43=EDGE_CURVE('',#51,#51,#59,.T.);
#44=EDGE_CURVE('',#52,#52,#60,.T.);
#45=EDGE_CURVE('',#53,#53,#61,.T.);
#46=EDGE_CURVE('',#54,#54,#62,.T.);
#47=EDGE_CURVE('',#55,#55,#63,.T.);
#48=EDGE_CURVE('',#56,#56,#64,.T.);
#49=EDGE_CURVE('',#57,#57,#65,.T.);
#50=EDGE_CURVE('',#58,#58,#66,.T.);
#51=VERTEX_POINT('',#179);
#52=VERTEX_POINT('',#182);
#53=VERTEX_POINT('',#185);
#54=VERTEX_POINT('',#188);
#55=VERTEX_POINT('',#191);
#56=VERTEX_POINT('',#194);
#57=VERTEX_POINT('',#197);
#58=VERTEX_POINT('',#200);
#59=CIRCLE('',#124,12.5);
#60=CIRCLE('',#126,12.5);
#61=CIRCLE('',#128,10.478);
#62=CIRCLE('',#130,10.478);
#63=CIRCLE('',#132,6.00000000000001);
#64=CIRCLE('',#134,8.5);
#65=CIRCLE('',#136,8.5);
#66=CIRCLE('',#138,6.00000000000001);
#67=EDGE_LOOP('',(#27));
#68=EDGE_LOOP('',(#28));
#69=EDGE_LOOP('',(#29));
#70=EDGE_LOOP('',(#30));
#71=EDGE_LOOP('',(#31));
#72=EDGE_LOOP('',(#32));
#73=EDGE_LOOP('',(#33));
#74=EDGE_LOOP('',(#34));
#75=EDGE_LOOP('',(#35));
#76=EDGE_LOOP('',(#36));
#77=EDGE_LOOP('',(#37));
#78=EDGE_LOOP('',(#38));
#79=EDGE_LOOP('',(#39));
#80=EDGE_LOOP('',(#40));
#81=EDGE_LOOP('',(#41));
#82=EDGE_LOOP('',(#42));
#83=FACE_BOUND('',#67,.T.);
#84=FACE_BOUND('',#68,.T.);
#85=FACE_BOUND('',#69,.T.);
#86=FACE_BOUND('',#70,.T.);
#87=FACE_BOUND('',#71,.T.);
#88=FACE_BOUND('',#72,.T.);
#89=FACE_BOUND('',#73,.T.);
#90=FACE_BOUND('',#74,.T.);
#91=FACE_BOUND('',#75,.T.);
#92=FACE_BOUND('',#76,.T.);
#93=FACE_BOUND('',#77,.T.);
#94=FACE_BOUND('',#78,.T.);
#95=FACE_BOUND('',#79,.T.);
#96=FACE_BOUND('',#80,.T.);
#97=FACE_BOUND('',#81,.T.);
#98=FACE_BOUND('',#82,.T.);
#99=SPHERICAL_SURFACE('',#123,12.5);
#100=SPHERICAL_SURFACE('',#133,8.5);
#101=ADVANCED_FACE('',(#83),#99,.T.);
#102=ADVANCED_FACE('',(#84,#85),#23,.T.);
#103=ADVANCED_FACE('',(#86,#87),#20,.F.);
#104=ADVANCED_FACE('',(#88,#89),#24,.T.);
#105=ADVANCED_FACE('',(#90,#91),#21,.F.);
#106=ADVANCED_FACE('',(#92),#100,.F.);
#107=ADVANCED_FACE('',(#93,#94),#25,.F.);
#108=ADVANCED_FACE('',(#95,#96),#22,.T.);
#109=ADVANCED_FACE('',(#97,#98),#26,.F.);
#110=CLOSED_SHELL('',(#101,#102,#103,#104,#105,#106,#107,#108,#109));
#111=STYLED_ITEM('',(#112),#119);
#112=PRESENTATION_STYLE_ASSIGNMENT((#113));
#113=SURFACE_STYLE_USAGE(.BOTH.,#114);
#114=SURFACE_SIDE_STYLE('',(#115));
#115=SURFACE_STYLE_FILL_AREA(#116);
#116=FILL_AREA_STYLE('',(#117));
#117=FILL_AREA_STYLE_COLOUR('',#118);
#118=COLOUR_RGB('',0.689999997615814,0.689999997615814,0.689999997615814);
#119=MANIFOLD_SOLID_BREP('PSE-15G',#110);
#120=SHAPE_DEFINITION_REPRESENTATION(#208,#121);
#121=SHAPE_REPRESENTATION('PSE-15G',(#122),#203);
#122=AXIS2_PLACEMENT_3D('',#176,#140,#141);
#123=AXIS2_PLACEMENT_3D('',#177,#142,#143);
#124=AXIS2_PLACEMENT_3D('',#178,#144,#145);
#125=AXIS2_PLACEMENT_3D('',#180,#146,#147);
#126=AXIS2_PLACEMENT_3D('',#181,#148,#149);
#127=AXIS2_PLACEMENT_3D('',#183,#150,#151);
#128=AXIS2_PLACEMENT_3D('',#184,#152,#153);
#129=AXIS2_PLACEMENT_3D('',#186,#154,#155);
#130=AXIS2_PLACEMENT_3D('',#187,#156,#157);
#131=AXIS2_PLACEMENT_3D('',#189,#158,#159);
#132=AXIS2_PLACEMENT_3D('',#190,#160,#161);
#133=AXIS2_PLACEMENT_3D('',#192,#162,#163);
#134=AXIS2_PLACEMENT_3D('',#193,#164,#165);
#135=AXIS2_PLACEMENT_3D('',#195,#166,#167);
#136=AXIS2_PLACEMENT_3D('',#196,#168,#169);
#137=AXIS2_PLACEMENT_3D('',#198,#170,#171);
#138=AXIS2_PLACEMENT_3D('',#199,#172,#173);
#139=AXIS2_PLACEMENT_3D('',#201,#174,#175);
#140=DIRECTION('',(0.,0.,1.));
#141=DIRECTION('',(1.,0.,0.));
#142=DIRECTION('',(0.,-1.,0.));
#143=DIRECTION('',(1.,0.,0.));
#144=DIRECTION('',(0.,-1.,0.));
#145=DIRECTION('',(0.,0.,-1.));
#146=DIRECTION('',(0.,-1.,0.));
#147=DIRECTION('',(0.,0.,-1.));
#148=DIRECTION('',(0.,-1.,0.));
#149=DIRECTION('',(0.,0.,-1.));
#150=DIRECTION('',(0.,1.,0.));
#151=DIRECTION('',(0.,0.,1.));
#152=DIRECTION('',(0.,-1.,0.));
#153=DIRECTION('',(0.,0.,-1.));
#154=DIRECTION('',(0.,-1.,0.));
#155=DIRECTION('',(0.,0.,-1.));
#156=DIRECTION('',(0.,-1.,0.));
#157=DIRECTION('',(0.,0.,-1.));
#158=DIRECTION('',(0.,1.,0.));
#159=DIRECTION('',(0.,0.,1.));
#160=DIRECTION('',(0.,-1.,0.));
#161=DIRECTION('',(0.,0.,-1.));
#162=DIRECTION('',(0.,-1.,0.));
#163=DIRECTION('',(1.,0.,0.));
#164=DIRECTION('',(0.,-1.,0.));
#165=DIRECTION('',(0.,0.,-1.));
#166=DIRECTION('',(0.,-1.,0.));
#167=DIRECTION('',(0.,0.,-1.));
#168=DIRECTION('',(0.,-1.,0.));
#169=DIRECTION('',(0.,0.,-1.));
#170=DIRECTION('',(0.,1.,0.));
#171=DIRECTION('',(0.,0.,1.));
#172=DIRECTION('',(0.,-1.,0.));
#173=DIRECTION('',(0.,0.,-1.));
#174=DIRECTION('',(0.,-1.,0.));
#175=DIRECTION('',(0.,0.,-1.));
#176=CARTESIAN_POINT('',(0.,0.,0.));
#177=CARTESIAN_POINT('',(0.,42.1,0.));
#178=CARTESIAN_POINT('',(0.,42.1,0.));
#179=CARTESIAN_POINT('',(0.,42.1,-12.5));
#180=CARTESIAN_POINT('',(0.,-500.,0.));
#181=CARTESIAN_POINT('',(0.,0.,0.));
#182=CARTESIAN_POINT('',(0.,0.,-12.5));
#183=CARTESIAN_POINT('',(12.5,0.,0.));
#184=CARTESIAN_POINT('',(0.,0.,0.));
#185=CARTESIAN_POINT('',(0.,0.,-10.478));
#186=CARTESIAN_POINT('',(0.,-50.,0.));
#187=CARTESIAN_POINT('',(0.,-11.4,0.));
#188=CARTESIAN_POINT('',(0.,-11.4,-10.478));
#189=CARTESIAN_POINT('',(10.478,-11.4,0.));
#190=CARTESIAN_POINT('',(0.,-11.4,0.));
#191=CARTESIAN_POINT('',(0.,-11.4,-6.00000000000001));
#192=CARTESIAN_POINT('',(-8.67361737988404E-16,42.1,0.));
#193=CARTESIAN_POINT('',(0.,42.1,0.));
#194=CARTESIAN_POINT('',(0.,42.1,-8.5));
#195=CARTESIAN_POINT('',(0.,-500.,0.));
#196=CARTESIAN_POINT('',(0.,4.,0.));
#197=CARTESIAN_POINT('',(0.,4.,-8.5));
#198=CARTESIAN_POINT('',(8.5,4.,0.));
#199=CARTESIAN_POINT('',(0.,4.,0.));
#200=CARTESIAN_POINT('',(0.,4.,-6.00000000000001));
#201=CARTESIAN_POINT('',(0.,-500.,0.));
#202=MECHANICAL_DESIGN_GEOMETRIC_PRESENTATION_REPRESENTATION('',(#111),
#203);
#203=(
GEOMETRIC_REPRESENTATION_CONTEXT(3)
GLOBAL_UNCERTAINTY_ASSIGNED_CONTEXT((#204))
GLOBAL_UNIT_ASSIGNED_CONTEXT((#207,#206,#205))
REPRESENTATION_CONTEXT('PSE-15G','TOP_LEVEL_ASSEMBLY_PART')
);
#204=UNCERTAINTY_MEASURE_WITH_UNIT(LENGTH_MEASURE(0.005),#207,
'DISTANCE_ACCURACY_VALUE','Maximum Tolerance applied to model');
#205=(
NAMED_UNIT(*)
SI_UNIT($,.STERADIAN.)
SOLID_ANGLE_UNIT()
);
#206=(
NAMED_UNIT(*)
PLANE_ANGLE_UNIT()
SI_UNIT($,.RADIAN.)
);
#207=(
LENGTH_UNIT()
NAMED_UNIT(*)
SI_UNIT(.MILLI.,.METRE.)
);
#208=PRODUCT_DEFINITION_SHAPE('','',#209);
#209=PRODUCT_DEFINITION('','',#211,#210);
#210=DESIGN_CONTEXT('',#217,'design');
#211=PRODUCT_DEFINITION_FORMATION_WITH_SPECIFIED_SOURCE('','',#213,
 .NOT_KNOWN.);
#212=PRODUCT_RELATED_PRODUCT_CATEGORY('','',(#213));
#213=PRODUCT('PSE-15G','PSE-15G','PSE-15G',(#215));
#214=PRODUCT_CATEGORY('','');
#215=MECHANICAL_CONTEXT('',#217,'mechanical');
#216=APPLICATION_PROTOCOL_DEFINITION('international standard',
'config_control_design',2010,#217);
#217=APPLICATION_CONTEXT(
'configuration controlled 3D designs of mechanical parts and assemblie
s');
ENDSEC;
END-ISO-10303-21;
