ISO-10303-21;
HEADER;
/* Generated by software containing ST-Developer
 * from STEP Tools, Inc. (www.steptools.com) 
 */
/* OPTION: using custom renumber hook */

FILE_DESCRIPTION(
/* description */ ('STEP AP203'),
/* implementation_level */ '2;1');

FILE_NAME(
/* name */ 'HX-21-D-QD8',
/* time_stamp */ '2024-05-13T13:33:08+02:00',
/* author */ ('License CC BY-ND 4.0'),
/* organization */ ('CADENAS'),
/* preprocessor_version */ 'ST-DEVELOPER v19.3',
/* originating_system */ 'PARTsolutions',
/* authorisation */ '  ');

FILE_SCHEMA (('CONFIG_CONTROL_DESIGN'));
ENDSEC;

DATA;
#10=PROPERTY_DEFINITION_REPRESENTATION(#14,#12);
#11=PROPERTY_DEFINITION_REPRESENTATION(#15,#13);
#12=REPRESENTATION('',(#16),#507);
#13=REPRESENTATION('',(#17),#507);
#14=PROPERTY_DEFINITION('pmi validation property','',#512);
#15=PROPERTY_DEFINITION('pmi validation property','',#512);
#16=VALUE_REPRESENTATION_ITEM('number of annotations',COUNT_MEASURE(0.));
#17=VALUE_REPRESENTATION_ITEM('number of views',COUNT_MEASURE(0.));
#18=SHAPE_REPRESENTATION_RELATIONSHIP('','',#311,#19);
#19=ADVANCED_BREP_SHAPE_REPRESENTATION('',(#309),#507);
#20=CIRCLE('',#325,2.);
#21=CIRCLE('',#332,2.99999999999998);
#22=CIRCLE('',#334,1.49999999999998);
#23=CIRCLE('',#336,1.5);
#24=CIRCLE('',#339,2.);
#25=CYLINDRICAL_SURFACE('',#317,0.499999999999997);
#26=CYLINDRICAL_SURFACE('',#321,0.500000000000006);
#27=CYLINDRICAL_SURFACE('',#331,2.99999999999999);
#28=CYLINDRICAL_SURFACE('',#335,1.49999999999999);
#29=CYLINDRICAL_SURFACE('',#340,2.);
#30=ELLIPSE('',#315,3.01145951263003,2.99999999999999);
#31=ELLIPSE('',#318,0.50358069388853,0.499999999999997);
#32=ELLIPSE('',#319,0.503580693888531,0.499999999999997);
#33=ELLIPSE('',#322,0.503580693888539,0.500000000000006);
#34=ELLIPSE('',#323,0.503580693888539,0.500000000000006);
#35=ORIENTED_EDGE('',*,*,#107,.F.);
#36=ORIENTED_EDGE('',*,*,#108,.T.);
#37=ORIENTED_EDGE('',*,*,#109,.F.);
#38=ORIENTED_EDGE('',*,*,#110,.F.);
#39=ORIENTED_EDGE('',*,*,#111,.F.);
#40=ORIENTED_EDGE('',*,*,#112,.T.);
#41=ORIENTED_EDGE('',*,*,#113,.F.);
#42=ORIENTED_EDGE('',*,*,#114,.F.);
#43=ORIENTED_EDGE('',*,*,#115,.F.);
#44=ORIENTED_EDGE('',*,*,#116,.F.);
#45=ORIENTED_EDGE('',*,*,#117,.F.);
#46=ORIENTED_EDGE('',*,*,#118,.T.);
#47=ORIENTED_EDGE('',*,*,#119,.T.);
#48=ORIENTED_EDGE('',*,*,#120,.T.);
#49=ORIENTED_EDGE('',*,*,#121,.F.);
#50=ORIENTED_EDGE('',*,*,#122,.F.);
#51=ORIENTED_EDGE('',*,*,#115,.T.);
#52=ORIENTED_EDGE('',*,*,#123,.F.);
#53=ORIENTED_EDGE('',*,*,#124,.F.);
#54=ORIENTED_EDGE('',*,*,#125,.F.);
#55=ORIENTED_EDGE('',*,*,#121,.T.);
#56=ORIENTED_EDGE('',*,*,#126,.F.);
#57=ORIENTED_EDGE('',*,*,#127,.F.);
#58=ORIENTED_EDGE('',*,*,#128,.F.);
#59=ORIENTED_EDGE('',*,*,#124,.T.);
#60=ORIENTED_EDGE('',*,*,#129,.F.);
#61=ORIENTED_EDGE('',*,*,#130,.F.);
#62=ORIENTED_EDGE('',*,*,#131,.F.);
#63=ORIENTED_EDGE('',*,*,#127,.T.);
#64=ORIENTED_EDGE('',*,*,#132,.F.);
#65=ORIENTED_EDGE('',*,*,#133,.T.);
#66=ORIENTED_EDGE('',*,*,#112,.F.);
#67=ORIENTED_EDGE('',*,*,#134,.F.);
#68=ORIENTED_EDGE('',*,*,#130,.T.);
#69=ORIENTED_EDGE('',*,*,#117,.T.);
#70=ORIENTED_EDGE('',*,*,#135,.T.);
#71=ORIENTED_EDGE('',*,*,#110,.T.);
#72=ORIENTED_EDGE('',*,*,#136,.T.);
#73=ORIENTED_EDGE('',*,*,#137,.F.);
#74=ORIENTED_EDGE('',*,*,#119,.F.);
#75=ORIENTED_EDGE('',*,*,#138,.F.);
#76=ORIENTED_EDGE('',*,*,#108,.F.);
#77=ORIENTED_EDGE('',*,*,#138,.T.);
#78=ORIENTED_EDGE('',*,*,#118,.F.);
#79=ORIENTED_EDGE('',*,*,#136,.F.);
#80=ORIENTED_EDGE('',*,*,#109,.T.);
#81=ORIENTED_EDGE('',*,*,#107,.T.);
#82=ORIENTED_EDGE('',*,*,#133,.F.);
#83=ORIENTED_EDGE('',*,*,#129,.T.);
#84=ORIENTED_EDGE('',*,*,#126,.T.);
#85=ORIENTED_EDGE('',*,*,#123,.T.);
#86=ORIENTED_EDGE('',*,*,#120,.F.);
#87=ORIENTED_EDGE('',*,*,#114,.T.);
#88=ORIENTED_EDGE('',*,*,#137,.T.);
#89=ORIENTED_EDGE('',*,*,#111,.T.);
#90=ORIENTED_EDGE('',*,*,#135,.F.);
#91=ORIENTED_EDGE('',*,*,#116,.T.);
#92=ORIENTED_EDGE('',*,*,#122,.T.);
#93=ORIENTED_EDGE('',*,*,#125,.T.);
#94=ORIENTED_EDGE('',*,*,#128,.T.);
#95=ORIENTED_EDGE('',*,*,#131,.T.);
#96=ORIENTED_EDGE('',*,*,#134,.T.);
#97=ORIENTED_EDGE('',*,*,#139,.F.);
#98=ORIENTED_EDGE('',*,*,#113,.T.);
#99=ORIENTED_EDGE('',*,*,#140,.F.);
#100=ORIENTED_EDGE('',*,*,#139,.T.);
#101=ORIENTED_EDGE('',*,*,#141,.F.);
#102=ORIENTED_EDGE('',*,*,#140,.T.);
#103=ORIENTED_EDGE('',*,*,#141,.T.);
#104=ORIENTED_EDGE('',*,*,#142,.F.);
#105=ORIENTED_EDGE('',*,*,#132,.T.);
#106=ORIENTED_EDGE('',*,*,#142,.T.);
#107=EDGE_CURVE('',#143,#144,#169,.T.);
#108=EDGE_CURVE('',#143,#145,#170,.T.);
#109=EDGE_CURVE('',#146,#145,#171,.T.);
#110=EDGE_CURVE('',#147,#146,#172,.T.);
#111=EDGE_CURVE('',#148,#147,#173,.T.);
#112=EDGE_CURVE('',#148,#144,#174,.T.);
#113=EDGE_CURVE('',#149,#149,#30,.F.);
#114=EDGE_CURVE('',#150,#151,#175,.T.);
#115=EDGE_CURVE('',#152,#150,#176,.T.);
#116=EDGE_CURVE('',#153,#152,#177,.T.);
#117=EDGE_CURVE('',#154,#153,#178,.T.);
#118=EDGE_CURVE('',#154,#155,#179,.T.);
#119=EDGE_CURVE('',#155,#151,#180,.T.);
#120=EDGE_CURVE('',#150,#156,#181,.T.);
#121=EDGE_CURVE('',#157,#156,#182,.T.);
#122=EDGE_CURVE('',#152,#157,#183,.T.);
#123=EDGE_CURVE('',#158,#156,#31,.T.);
#124=EDGE_CURVE('',#159,#158,#184,.T.);
#125=EDGE_CURVE('',#157,#159,#32,.T.);
#126=EDGE_CURVE('',#160,#158,#185,.T.);
#127=EDGE_CURVE('',#161,#160,#186,.T.);
#128=EDGE_CURVE('',#159,#161,#187,.T.);
#129=EDGE_CURVE('',#162,#160,#33,.T.);
#130=EDGE_CURVE('',#163,#162,#188,.T.);
#131=EDGE_CURVE('',#161,#163,#34,.T.);
#132=EDGE_CURVE('',#164,#164,#20,.F.);
#133=EDGE_CURVE('',#162,#144,#189,.T.);
#134=EDGE_CURVE('',#163,#148,#190,.T.);
#135=EDGE_CURVE('',#153,#147,#191,.T.);
#136=EDGE_CURVE('',#146,#154,#192,.T.);
#137=EDGE_CURVE('',#151,#143,#193,.T.);
#138=EDGE_CURVE('',#145,#155,#194,.T.);
#139=EDGE_CURVE('',#165,#165,#21,.T.);
#140=EDGE_CURVE('',#166,#166,#22,.T.);
#141=EDGE_CURVE('',#167,#167,#23,.T.);
#142=EDGE_CURVE('',#168,#168,#24,.T.);
#143=VERTEX_POINT('',#428);
#144=VERTEX_POINT('',#429);
#145=VERTEX_POINT('',#431);
#146=VERTEX_POINT('',#433);
#147=VERTEX_POINT('',#435);
#148=VERTEX_POINT('',#437);
#149=VERTEX_POINT('',#441);
#150=VERTEX_POINT('',#443);
#151=VERTEX_POINT('',#444);
#152=VERTEX_POINT('',#446);
#153=VERTEX_POINT('',#448);
#154=VERTEX_POINT('',#450);
#155=VERTEX_POINT('',#452);
#156=VERTEX_POINT('',#456);
#157=VERTEX_POINT('',#458);
#158=VERTEX_POINT('',#462);
#159=VERTEX_POINT('',#464);
#160=VERTEX_POINT('',#468);
#161=VERTEX_POINT('',#470);
#162=VERTEX_POINT('',#474);
#163=VERTEX_POINT('',#476);
#164=VERTEX_POINT('',#480);
#165=VERTEX_POINT('',#494);
#166=VERTEX_POINT('',#497);
#167=VERTEX_POINT('',#500);
#168=VERTEX_POINT('',#504);
#169=LINE('',#427,#195);
#170=LINE('',#430,#196);
#171=LINE('',#432,#197);
#172=LINE('',#434,#198);
#173=LINE('',#436,#199);
#174=LINE('',#438,#200);
#175=LINE('',#442,#201);
#176=LINE('',#445,#202);
#177=LINE('',#447,#203);
#178=LINE('',#449,#204);
#179=LINE('',#451,#205);
#180=LINE('',#453,#206);
#181=LINE('',#455,#207);
#182=LINE('',#457,#208);
#183=LINE('',#459,#209);
#184=LINE('',#463,#210);
#185=LINE('',#467,#211);
#186=LINE('',#469,#212);
#187=LINE('',#471,#213);
#188=LINE('',#475,#214);
#189=LINE('',#481,#215);
#190=LINE('',#482,#216);
#191=LINE('',#484,#217);
#192=LINE('',#485,#218);
#193=LINE('',#487,#219);
#194=LINE('',#488,#220);
#195=VECTOR('',#345,1000.);
#196=VECTOR('',#346,1000.);
#197=VECTOR('',#347,1000.);
#198=VECTOR('',#348,1000.);
#199=VECTOR('',#349,1000.);
#200=VECTOR('',#350,1000.);
#201=VECTOR('',#355,1000.);
#202=VECTOR('',#356,1000.);
#203=VECTOR('',#357,1000.);
#204=VECTOR('',#358,1000.);
#205=VECTOR('',#359,1000.);
#206=VECTOR('',#360,1000.);
#207=VECTOR('',#363,1000.);
#208=VECTOR('',#364,1000.);
#209=VECTOR('',#365,1000.);
#210=VECTOR('',#370,1000.);
#211=VECTOR('',#375,1000.);
#212=VECTOR('',#376,1000.);
#213=VECTOR('',#377,1000.);
#214=VECTOR('',#382,1000.);
#215=VECTOR('',#389,1000.);
#216=VECTOR('',#390,1000.);
#217=VECTOR('',#393,1000.);
#218=VECTOR('',#394,1000.);
#219=VECTOR('',#397,1000.);
#220=VECTOR('',#398,1000.);
#221=EDGE_LOOP('',(#35,#36,#37,#38,#39,#40));
#222=EDGE_LOOP('',(#41));
#223=EDGE_LOOP('',(#42,#43,#44,#45,#46,#47));
#224=EDGE_LOOP('',(#48,#49,#50,#51));
#225=EDGE_LOOP('',(#52,#53,#54,#55));
#226=EDGE_LOOP('',(#56,#57,#58,#59));
#227=EDGE_LOOP('',(#60,#61,#62,#63));
#228=EDGE_LOOP('',(#64));
#229=EDGE_LOOP('',(#65,#66,#67,#68));
#230=EDGE_LOOP('',(#69,#70,#71,#72));
#231=EDGE_LOOP('',(#73,#74,#75,#76));
#232=EDGE_LOOP('',(#77,#78,#79,#80));
#233=EDGE_LOOP('',(#81,#82,#83,#84,#85,#86,#87,#88));
#234=EDGE_LOOP('',(#89,#90,#91,#92,#93,#94,#95,#96));
#235=EDGE_LOOP('',(#97));
#236=EDGE_LOOP('',(#98));
#237=EDGE_LOOP('',(#99));
#238=EDGE_LOOP('',(#100));
#239=EDGE_LOOP('',(#101));
#240=EDGE_LOOP('',(#102));
#241=EDGE_LOOP('',(#103));
#242=EDGE_LOOP('',(#104));
#243=EDGE_LOOP('',(#105));
#244=EDGE_LOOP('',(#106));
#245=FACE_BOUND('',#221,.T.);
#246=FACE_BOUND('',#222,.T.);
#247=FACE_BOUND('',#223,.T.);
#248=FACE_BOUND('',#224,.T.);
#249=FACE_BOUND('',#225,.T.);
#250=FACE_BOUND('',#226,.T.);
#251=FACE_BOUND('',#227,.T.);
#252=FACE_BOUND('',#228,.T.);
#253=FACE_BOUND('',#229,.T.);
#254=FACE_BOUND('',#230,.T.);
#255=FACE_BOUND('',#231,.T.);
#256=FACE_BOUND('',#232,.T.);
#257=FACE_BOUND('',#233,.T.);
#258=FACE_BOUND('',#234,.T.);
#259=FACE_BOUND('',#235,.T.);
#260=FACE_BOUND('',#236,.T.);
#261=FACE_BOUND('',#237,.T.);
#262=FACE_BOUND('',#238,.T.);
#263=FACE_BOUND('',#239,.T.);
#264=FACE_BOUND('',#240,.T.);
#265=FACE_BOUND('',#241,.T.);
#266=FACE_BOUND('',#242,.T.);
#267=FACE_BOUND('',#243,.T.);
#268=FACE_BOUND('',#244,.T.);
#269=PLANE('',#313);
#270=PLANE('',#314);
#271=PLANE('',#316);
#272=PLANE('',#320);
#273=PLANE('',#324);
#274=PLANE('',#326);
#275=PLANE('',#327);
#276=PLANE('',#328);
#277=PLANE('',#329);
#278=PLANE('',#330);
#279=PLANE('',#333);
#280=PLANE('',#337);
#281=PLANE('',#338);
#282=ADVANCED_FACE('',(#245),#269,.F.);
#283=ADVANCED_FACE('',(#246,#247),#270,.F.);
#284=ADVANCED_FACE('',(#248),#271,.F.);
#285=ADVANCED_FACE('',(#249),#25,.T.);
#286=ADVANCED_FACE('',(#250),#272,.F.);
#287=ADVANCED_FACE('',(#251),#26,.T.);
#288=ADVANCED_FACE('',(#252,#253),#273,.F.);
#289=ADVANCED_FACE('',(#254),#274,.T.);
#290=ADVANCED_FACE('',(#255),#275,.F.);
#291=ADVANCED_FACE('',(#256),#276,.F.);
#292=ADVANCED_FACE('',(#257),#277,.T.);
#293=ADVANCED_FACE('',(#258),#278,.T.);
#294=ADVANCED_FACE('',(#259,#260),#27,.T.);
#295=ADVANCED_FACE('',(#261,#262),#279,.F.);
#296=ADVANCED_FACE('',(#263,#264),#28,.T.);
#297=ADVANCED_FACE('',(#265),#280,.F.);
#298=ADVANCED_FACE('',(#266),#281,.F.);
#299=ADVANCED_FACE('',(#267,#268),#29,.T.);
#300=CLOSED_SHELL('',(#282,#283,#284,#285,#286,#287,#288,#289,#290,#291,
#292,#293,#294,#295,#296,#297,#298,#299));
#301=STYLED_ITEM('',(#302),#309);
#302=PRESENTATION_STYLE_ASSIGNMENT((#303));
#303=SURFACE_STYLE_USAGE(.BOTH.,#304);
#304=SURFACE_SIDE_STYLE('',(#305));
#305=SURFACE_STYLE_FILL_AREA(#306);
#306=FILL_AREA_STYLE('',(#307));
#307=FILL_AREA_STYLE_COLOUR('',#308);
#308=COLOUR_RGB('',0.689999997615814,0.689999997615814,0.689999997615814);
#309=MANIFOLD_SOLID_BREP('HX-21-D-QD8',#300);
#310=SHAPE_DEFINITION_REPRESENTATION(#512,#311);
#311=SHAPE_REPRESENTATION('HX-21-D-QD8',(#312),#507);
#312=AXIS2_PLACEMENT_3D('',#425,#341,#342);
#313=AXIS2_PLACEMENT_3D('',#426,#343,#344);
#314=AXIS2_PLACEMENT_3D('',#439,#351,#352);
#315=AXIS2_PLACEMENT_3D('',#440,#353,#354);
#316=AXIS2_PLACEMENT_3D('',#454,#361,#362);
#317=AXIS2_PLACEMENT_3D('',#460,#366,#367);
#318=AXIS2_PLACEMENT_3D('',#461,#368,#369);
#319=AXIS2_PLACEMENT_3D('',#465,#371,#372);
#320=AXIS2_PLACEMENT_3D('',#466,#373,#374);
#321=AXIS2_PLACEMENT_3D('',#472,#378,#379);
#322=AXIS2_PLACEMENT_3D('',#473,#380,#381);
#323=AXIS2_PLACEMENT_3D('',#477,#383,#384);
#324=AXIS2_PLACEMENT_3D('',#478,#385,#386);
#325=AXIS2_PLACEMENT_3D('',#479,#387,#388);
#326=AXIS2_PLACEMENT_3D('',#483,#391,#392);
#327=AXIS2_PLACEMENT_3D('',#486,#395,#396);
#328=AXIS2_PLACEMENT_3D('',#489,#399,#400);
#329=AXIS2_PLACEMENT_3D('',#490,#401,#402);
#330=AXIS2_PLACEMENT_3D('',#491,#403,#404);
#331=AXIS2_PLACEMENT_3D('',#492,#405,#406);
#332=AXIS2_PLACEMENT_3D('',#493,#407,#408);
#333=AXIS2_PLACEMENT_3D('',#495,#409,#410);
#334=AXIS2_PLACEMENT_3D('',#496,#411,#412);
#335=AXIS2_PLACEMENT_3D('',#498,#413,#414);
#336=AXIS2_PLACEMENT_3D('',#499,#415,#416);
#337=AXIS2_PLACEMENT_3D('',#501,#417,#418);
#338=AXIS2_PLACEMENT_3D('',#502,#419,#420);
#339=AXIS2_PLACEMENT_3D('',#503,#421,#422);
#340=AXIS2_PLACEMENT_3D('',#505,#423,#424);
#341=DIRECTION('',(0.,0.,1.));
#342=DIRECTION('',(1.,0.,0.));
#343=DIRECTION('',(0.,-0.0871557427476581,-0.996194698091746));
#344=DIRECTION('',(0.,0.996194698091746,-0.0871557427476581));
#345=DIRECTION('',(0.118592787073947,0.989164526827312,-0.0865406824593744));
#346=DIRECTION('',(0.,-0.996194698091745,0.0871557427476581));
#347=DIRECTION('',(-1.,0.,0.));
#348=DIRECTION('',(0.,-0.996194698091745,0.0871557427476581));
#349=DIRECTION('',(0.11859278707396,-0.98916452682731,0.0865406824593743));
#350=DIRECTION('',(-1.,0.,0.));
#351=DIRECTION('',(0.,-0.0871557427476605,0.996194698091745));
#352=DIRECTION('',(0.,-0.996194698091745,-0.0871557427476605));
#353=DIRECTION('',(0.,-0.0871557427476605,0.996194698091745));
#354=DIRECTION('',(0.,-0.996194698091745,-0.0871557427476605));
#355=DIRECTION('',(-0.118592787073947,-0.989164526827311,-0.0865406824593768));
#356=DIRECTION('',(-1.,0.,0.));
#357=DIRECTION('',(-0.11859278707396,0.98916452682731,0.0865406824593766));
#358=DIRECTION('',(0.,0.996194698091745,0.0871557427476605));
#359=DIRECTION('',(-1.,0.,0.));
#360=DIRECTION('',(0.,0.996194698091745,0.0871557427476605));
#361=DIRECTION('',(0.,-1.,0.));
#362=DIRECTION('',(0.,0.,-1.));
#363=DIRECTION('',(0.,0.,1.));
#364=DIRECTION('',(-1.,0.,0.));
#365=DIRECTION('',(0.,0.,1.));
#366=DIRECTION('',(-1.,0.,0.));
#367=DIRECTION('',(0.,0.,1.));
#368=DIRECTION('',(-0.992889533034153,0.119039385042188,0.));
#369=DIRECTION('',(-0.119039385042188,-0.992889533034153,0.));
#370=DIRECTION('',(-1.,0.,0.));
#371=DIRECTION('',(0.992889533034151,0.119039385042201,0.));
#372=DIRECTION('',(-0.119039385042201,0.992889533034151,0.));
#373=DIRECTION('',(0.,-1.,8.67361737988404E-16));
#374=DIRECTION('',(0.,-8.67361737988404E-16,-1.));
#375=DIRECTION('',(-1.03989622676092E-16,-8.67361737988404E-16,-1.));
#376=DIRECTION('',(-1.,0.,0.));
#377=DIRECTION('',(-1.03989622676104E-16,8.67361737988404E-16,1.));
#378=DIRECTION('',(-1.,0.,0.));
#379=DIRECTION('',(0.,0.,1.));
#380=DIRECTION('',(-0.992889533034153,0.119039385042188,0.));
#381=DIRECTION('',(-0.119039385042188,-0.992889533034153,0.));
#382=DIRECTION('',(-1.,0.,0.));
#383=DIRECTION('',(0.992889533034151,0.119039385042201,0.));
#384=DIRECTION('',(-0.119039385042201,0.992889533034151,0.));
#385=DIRECTION('',(0.,-1.,0.));
#386=DIRECTION('',(0.,0.,-1.));
#387=DIRECTION('',(0.,-1.,0.));
#388=DIRECTION('',(0.,0.,-1.));
#389=DIRECTION('',(0.,0.,1.));
#390=DIRECTION('',(0.,0.,1.));
#391=DIRECTION('',(1.,0.,0.));
#392=DIRECTION('',(0.,0.,-1.));
#393=DIRECTION('',(0.,0.,1.));
#394=DIRECTION('',(0.,0.,-1.));
#395=DIRECTION('',(1.,0.,0.));
#396=DIRECTION('',(0.,0.,-1.));
#397=DIRECTION('',(0.,0.,1.));
#398=DIRECTION('',(0.,0.,-1.));
#399=DIRECTION('',(0.,1.,0.));
#400=DIRECTION('',(0.,0.,1.));
#401=DIRECTION('',(-0.992889533034153,0.119039385042188,0.));
#402=DIRECTION('',(-0.119039385042188,-0.992889533034153,0.));
#403=DIRECTION('',(0.992889533034151,0.119039385042201,0.));
#404=DIRECTION('',(-0.119039385042201,0.992889533034151,0.));
#405=DIRECTION('',(0.,5.74627151417317E-15,-1.));
#406=DIRECTION('',(0.,1.,5.74627151417317E-15));
#407=DIRECTION('',(0.,5.74627151417317E-15,-1.));
#408=DIRECTION('',(0.,1.,5.74627151417317E-15));
#409=DIRECTION('',(0.,-5.74627151417317E-15,1.));
#410=DIRECTION('',(0.,-1.,-5.74627151417317E-15));
#411=DIRECTION('',(0.,5.74627151417317E-15,-1.));
#412=DIRECTION('',(0.,1.,5.74627151417317E-15));
#413=DIRECTION('',(0.,5.74627151417317E-15,-1.));
#414=DIRECTION('',(0.,1.,5.74627151417317E-15));
#415=DIRECTION('',(0.,5.74627151417317E-15,-1.));
#416=DIRECTION('',(0.,1.,5.74627151417317E-15));
#417=DIRECTION('',(0.,-5.74627151417317E-15,1.));
#418=DIRECTION('',(0.,-1.,-5.74627151417317E-15));
#419=DIRECTION('',(0.,-1.,0.));
#420=DIRECTION('',(0.,0.,-1.));
#421=DIRECTION('',(0.,-1.,0.));
#422=DIRECTION('',(0.,0.,-1.));
#423=DIRECTION('',(0.,-1.,0.));
#424=DIRECTION('',(0.,0.,-1.));
#425=CARTESIAN_POINT('',(0.,0.,0.));
#426=CARTESIAN_POINT('',(6.25,11.1,-0.971124165137756));
#427=CARTESIAN_POINT('',(-5.11673085274792,12.4524268083068,-1.08944617911315));
#428=CARTESIAN_POINT('',(-6.25,3.,-0.262465990577773));
#429=CARTESIAN_POINT('',(-5.27887583486233,11.1,-0.971124165137754));
#430=CARTESIAN_POINT('',(-6.25,11.1,-0.971124165137756));
#431=CARTESIAN_POINT('',(-6.25,0.,0.));
#432=CARTESIAN_POINT('',(6.25,0.,0.));
#433=CARTESIAN_POINT('',(6.25,0.,0.));
#434=CARTESIAN_POINT('',(6.25,11.1,-0.971124165137756));
#435=CARTESIAN_POINT('',(6.25,3.,-0.262465990577772));
#436=CARTESIAN_POINT('',(5.29253396707239,10.9860795819176,-0.961157420011416));
#437=CARTESIAN_POINT('',(5.27887583486222,11.1,-0.971124165137754));
#438=CARTESIAN_POINT('',(6.25,11.1,-0.971124165137755));
#439=CARTESIAN_POINT('',(6.25,0.,-25.));
#440=CARTESIAN_POINT('',(0.,5.54999999999996,-24.5144379174311));
#441=CARTESIAN_POINT('',(0.,2.54999999999997,-24.7769039080089));
#442=CARTESIAN_POINT('',(-6.42881393490782,1.50853997382706,-24.8680198538144));
#443=CARTESIAN_POINT('',(-5.27887583486233,11.1,-24.0288758348622));
#444=CARTESIAN_POINT('',(-6.25,3.,-24.7375340094222));
#445=CARTESIAN_POINT('',(6.25,11.1,-24.0288758348622));
#446=CARTESIAN_POINT('',(5.27887583486222,11.1,-24.0288758348622));
#447=CARTESIAN_POINT('',(6.60461704923245,0.0421927474379091,-24.9963086129162));
#448=CARTESIAN_POINT('',(6.25,3.,-24.7375340094222));
#449=CARTESIAN_POINT('',(6.25,0.,-25.));
#450=CARTESIAN_POINT('',(6.25,0.,-25.));
#451=CARTESIAN_POINT('',(6.25,0.,-25.));
#452=CARTESIAN_POINT('',(-6.25,0.,-25.));
#453=CARTESIAN_POINT('',(-6.25,0.,-25.));
#454=CARTESIAN_POINT('',(6.25,11.1,-24.0288758348622));
#455=CARTESIAN_POINT('',(-5.27887583486233,11.1,-25.));
#456=CARTESIAN_POINT('',(-5.27887583486233,11.1,-17.));
#457=CARTESIAN_POINT('',(6.25,11.1,-17.));
#458=CARTESIAN_POINT('',(5.27887583486222,11.1,-17.));
#459=CARTESIAN_POINT('',(5.27887583486222,11.1,-25.));
#460=CARTESIAN_POINT('',(6.25,10.6,-17.));
#461=CARTESIAN_POINT('',(-5.33882177098194,10.6,-17.));
#462=CARTESIAN_POINT('',(-5.33882177098194,10.6,-16.5));
#463=CARTESIAN_POINT('',(6.25,10.6,-16.5));
#464=CARTESIAN_POINT('',(5.33882177098184,10.6,-16.5));
#465=CARTESIAN_POINT('',(5.33882177098184,10.6,-17.));
#466=CARTESIAN_POINT('',(6.25,10.6,-16.5));
#467=CARTESIAN_POINT('',(-5.33882177098194,10.6,-16.5));
#468=CARTESIAN_POINT('',(-5.33882177098194,10.6,-8.49999999999999));
#469=CARTESIAN_POINT('',(6.25,10.6,-8.49999999999999));
#470=CARTESIAN_POINT('',(5.33882177098183,10.6,-8.49999999999999));
#471=CARTESIAN_POINT('',(5.33882177098184,10.6,-16.5));
#472=CARTESIAN_POINT('',(6.25,10.6,-7.99999999999998));
#473=CARTESIAN_POINT('',(-5.33882177098194,10.6,-7.99999999999998));
#474=CARTESIAN_POINT('',(-5.27887583486233,11.1,-7.99999999999999));
#475=CARTESIAN_POINT('',(6.25,11.1,-7.99999999999999));
#476=CARTESIAN_POINT('',(5.27887583486222,11.1,-7.99999999999999));
#477=CARTESIAN_POINT('',(5.33882177098184,10.6,-7.99999999999998));
#478=CARTESIAN_POINT('',(6.25,11.1,-7.99999999999999));
#479=CARTESIAN_POINT('',(0.,11.1,-4.48556208256887));
#480=CARTESIAN_POINT('',(0.,11.1,-6.48556208256887));
#481=CARTESIAN_POINT('',(-5.27887583486233,11.1,-25.));
#482=CARTESIAN_POINT('',(5.27887583486222,11.1,-25.));
#483=CARTESIAN_POINT('',(6.25,10.6,-17.));
#484=CARTESIAN_POINT('',(6.25,3.,-17.));
#485=CARTESIAN_POINT('',(6.25,0.,0.));
#486=CARTESIAN_POINT('',(-6.25,10.6,-17.));
#487=CARTESIAN_POINT('',(-6.25,3.,-17.));
#488=CARTESIAN_POINT('',(-6.25,0.,0.));
#489=CARTESIAN_POINT('',(6.25,0.,0.));
#490=CARTESIAN_POINT('',(-5.27887583486233,11.1,-25.));
#491=CARTESIAN_POINT('',(6.25,3.,-25.));
#492=CARTESIAN_POINT('',(0.,5.55,-32.));
#493=CARTESIAN_POINT('',(0.,5.54999999999997,-27.));
#494=CARTESIAN_POINT('',(0.,8.54999999999995,-27.));
#495=CARTESIAN_POINT('',(0.,8.54999999999995,-27.));
#496=CARTESIAN_POINT('',(0.,5.54999999999997,-27.));
#497=CARTESIAN_POINT('',(0.,7.04999999999995,-27.));
#498=CARTESIAN_POINT('',(0.,5.55,-32.));
#499=CARTESIAN_POINT('',(0.,5.55,-32.));
#500=CARTESIAN_POINT('',(0.,7.05,-32.));
#501=CARTESIAN_POINT('',(0.,7.05,-32.));
#502=CARTESIAN_POINT('',(0.,12.1,-4.48556208256887));
#503=CARTESIAN_POINT('',(0.,12.1,-4.48556208256887));
#504=CARTESIAN_POINT('',(0.,12.1,-6.48556208256887));
#505=CARTESIAN_POINT('',(0.,11.1,-4.48556208256887));
#506=MECHANICAL_DESIGN_GEOMETRIC_PRESENTATION_REPRESENTATION('',(#301),
#507);
#507=(
GEOMETRIC_REPRESENTATION_CONTEXT(3)
GLOBAL_UNCERTAINTY_ASSIGNED_CONTEXT((#508))
GLOBAL_UNIT_ASSIGNED_CONTEXT((#511,#510,#509))
REPRESENTATION_CONTEXT('HX-21-D-QD8','TOP_LEVEL_ASSEMBLY_PART')
);
#508=UNCERTAINTY_MEASURE_WITH_UNIT(LENGTH_MEASURE(0.005),#511,
'DISTANCE_ACCURACY_VALUE','Maximum Tolerance applied to model');
#509=(
NAMED_UNIT(*)
SI_UNIT($,.STERADIAN.)
SOLID_ANGLE_UNIT()
);
#510=(
NAMED_UNIT(*)
PLANE_ANGLE_UNIT()
SI_UNIT($,.RADIAN.)
);
#511=(
LENGTH_UNIT()
NAMED_UNIT(*)
SI_UNIT(.MILLI.,.METRE.)
);
#512=PRODUCT_DEFINITION_SHAPE('','',#513);
#513=PRODUCT_DEFINITION('','',#515,#514);
#514=DESIGN_CONTEXT('',#521,'design');
#515=PRODUCT_DEFINITION_FORMATION_WITH_SPECIFIED_SOURCE('','',#517,
 .NOT_KNOWN.);
#516=PRODUCT_RELATED_PRODUCT_CATEGORY('','',(#517));
#517=PRODUCT('HX-21-D-QD8','HX-21-D-QD8','HX-21-D-QD8',(#519));
#518=PRODUCT_CATEGORY('','');
#519=MECHANICAL_CONTEXT('',#521,'mechanical');
#520=APPLICATION_PROTOCOL_DEFINITION('international standard',
'config_control_design',2010,#521);
#521=APPLICATION_CONTEXT(
'configuration controlled 3D designs of mechanical parts and assemblie
s');
ENDSEC;
END-ISO-10303-21;
