ISO-10303-21;
HEADER;
/* Generated by software containing ST-Developer
 * from STEP Tools, Inc. (www.steptools.com) 
 */
/* OPTION: using custom renumber hook */

FILE_DESCRIPTION(
/* description */ ('STEP AP203'),
/* implementation_level */ '2;1');

FILE_NAME(
/* name */ 'GSC1_2-P01',
/* time_stamp */ '2024-05-13T08:33:37+02:00',
/* author */ ('License CC BY-ND 4.0'),
/* organization */ ('CADENAS'),
/* preprocessor_version */ 'ST-DEVELOPER v19.3',
/* originating_system */ 'PARTsolutions',
/* authorisation */ '  ');

FILE_SCHEMA (('CONFIG_CONTROL_DESIGN'));
ENDSEC;

DATA;
#10=PROPERTY_DEFINITION_REPRESENTATION(#14,#12);
#11=PROPERTY_DEFINITION_REPRESENTATION(#15,#13);
#12=REPRESENTATION('',(#16),#469);
#13=REPRESENTATION('',(#17),#469);
#14=PROPERTY_DEFINITION('pmi validation property','',#474);
#15=PROPERTY_DEFINITION('pmi validation property','',#474);
#16=VALUE_REPRESENTATION_ITEM('number of annotations',COUNT_MEASURE(0.));
#17=VALUE_REPRESENTATION_ITEM('number of views',COUNT_MEASURE(0.));
#18=SHAPE_REPRESENTATION_RELATIONSHIP('','',#269,#19);
#19=ADVANCED_BREP_SHAPE_REPRESENTATION('',(#267),#469);
#20=LINE('',#444,#32);
#21=LINE('',#447,#33);
#22=LINE('',#449,#34);
#23=LINE('',#451,#35);
#24=LINE('',#453,#36);
#25=LINE('',#455,#37);
#26=LINE('',#457,#38);
#27=LINE('',#458,#39);
#28=LINE('',#460,#40);
#29=LINE('',#462,#41);
#30=LINE('',#464,#42);
#31=LINE('',#466,#43);
#32=VECTOR('',#345,1000.);
#33=VECTOR('',#346,1000.);
#34=VECTOR('',#347,1000.);
#35=VECTOR('',#348,1000.);
#36=VECTOR('',#349,1000.);
#37=VECTOR('',#350,1000.);
#38=VECTOR('',#353,1000.);
#39=VECTOR('',#354,1000.);
#40=VECTOR('',#357,1000.);
#41=VECTOR('',#360,1000.);
#42=VECTOR('',#363,1000.);
#43=VECTOR('',#366,1000.);
#44=B_SPLINE_CURVE_WITH_KNOTS('',3,(#401,#402,#403,#404,#405,#406),
 .UNSPECIFIED.,.F.,.F.,(4,1,1,4),(2.54432159517214E-7,0.00149120336241202,
0.00298215229266452,0.00596405015316952),.UNSPECIFIED.);
#45=B_SPLINE_CURVE_WITH_KNOTS('',3,(#409,#410,#411,#412,#413,#414),
 .UNSPECIFIED.,.F.,.F.,(4,1,1,4),(2.54432159516369E-7,0.00149120336241202,
0.00298215229266451,0.00596405015316951),.UNSPECIFIED.);
#46=B_SPLINE_CURVE_WITH_KNOTS('',3,(#416,#417,#418,#419,#420,#421),
 .UNSPECIFIED.,.F.,.F.,(4,1,1,4),(0.00847940134149364,0.0099865555355685,
0.0114937097296434,0.0145080181177931),.UNSPECIFIED.);
#47=B_SPLINE_CURVE_WITH_KNOTS('',3,(#423,#424,#425,#426,#427,#428),
 .UNSPECIFIED.,.F.,.F.,(4,1,1,4),(2.54432159517214E-7,0.00149120336241202,
0.00298215229266452,0.00596405015316952),.UNSPECIFIED.);
#48=B_SPLINE_CURVE_WITH_KNOTS('',3,(#430,#431,#432,#433,#434,#435),
 .UNSPECIFIED.,.F.,.F.,(4,1,1,4),(2.54432159516369E-7,0.00149120336241202,
0.00298215229266451,0.00596405015316951),.UNSPECIFIED.);
#49=B_SPLINE_CURVE_WITH_KNOTS('',3,(#437,#438,#439,#440,#441,#442),
 .UNSPECIFIED.,.F.,.F.,(4,1,1,4),(0.00847940134149364,0.0099865555355685,
0.0114937097296434,0.0145080181177931),.UNSPECIFIED.);
#50=TOROIDAL_SURFACE('',#283,10.5,1.5);
#51=CONICAL_SURFACE('',#276,9.3155,0.785398163397448);
#52=CONICAL_SURFACE('',#280,10.4775,0.785398163397448);
#53=CONICAL_SURFACE('',#291,6.5,0.785398163397448);
#54=PLANE('',#274);
#55=PLANE('',#282);
#56=PLANE('',#285);
#57=PLANE('',#290);
#58=PLANE('',#292);
#59=PLANE('',#293);
#60=PLANE('',#294);
#61=PLANE('',#295);
#62=PLANE('',#296);
#63=PLANE('',#297);
#64=PLANE('',#298);
#65=ORIENTED_EDGE('',*,*,#121,.F.);
#66=ORIENTED_EDGE('',*,*,#122,.T.);
#67=ORIENTED_EDGE('',*,*,#123,.F.);
#68=ORIENTED_EDGE('',*,*,#121,.T.);
#69=ORIENTED_EDGE('',*,*,#124,.F.);
#70=ORIENTED_EDGE('',*,*,#123,.T.);
#71=ORIENTED_EDGE('',*,*,#125,.F.);
#72=ORIENTED_EDGE('',*,*,#124,.T.);
#73=ORIENTED_EDGE('',*,*,#126,.F.);
#74=ORIENTED_EDGE('',*,*,#125,.T.);
#75=ORIENTED_EDGE('',*,*,#126,.T.);
#76=ORIENTED_EDGE('',*,*,#127,.F.);
#77=ORIENTED_EDGE('',*,*,#122,.F.);
#78=ORIENTED_EDGE('',*,*,#128,.F.);
#79=ORIENTED_EDGE('',*,*,#129,.T.);
#80=ORIENTED_EDGE('',*,*,#129,.F.);
#81=ORIENTED_EDGE('',*,*,#130,.T.);
#82=ORIENTED_EDGE('',*,*,#127,.T.);
#83=ORIENTED_EDGE('',*,*,#130,.F.);
#84=ORIENTED_EDGE('',*,*,#128,.T.);
#85=ORIENTED_EDGE('',*,*,#131,.F.);
#86=ORIENTED_EDGE('',*,*,#132,.F.);
#87=ORIENTED_EDGE('',*,*,#133,.F.);
#88=ORIENTED_EDGE('',*,*,#134,.F.);
#89=ORIENTED_EDGE('',*,*,#135,.F.);
#90=ORIENTED_EDGE('',*,*,#136,.F.);
#91=ORIENTED_EDGE('',*,*,#137,.T.);
#92=ORIENTED_EDGE('',*,*,#138,.T.);
#93=ORIENTED_EDGE('',*,*,#139,.T.);
#94=ORIENTED_EDGE('',*,*,#140,.T.);
#95=ORIENTED_EDGE('',*,*,#141,.T.);
#96=ORIENTED_EDGE('',*,*,#142,.T.);
#97=ORIENTED_EDGE('',*,*,#143,.T.);
#98=ORIENTED_EDGE('',*,*,#131,.T.);
#99=ORIENTED_EDGE('',*,*,#144,.F.);
#100=ORIENTED_EDGE('',*,*,#142,.F.);
#101=ORIENTED_EDGE('',*,*,#145,.T.);
#102=ORIENTED_EDGE('',*,*,#132,.T.);
#103=ORIENTED_EDGE('',*,*,#143,.F.);
#104=ORIENTED_EDGE('',*,*,#141,.F.);
#105=ORIENTED_EDGE('',*,*,#146,.T.);
#106=ORIENTED_EDGE('',*,*,#133,.T.);
#107=ORIENTED_EDGE('',*,*,#145,.F.);
#108=ORIENTED_EDGE('',*,*,#140,.F.);
#109=ORIENTED_EDGE('',*,*,#147,.T.);
#110=ORIENTED_EDGE('',*,*,#134,.T.);
#111=ORIENTED_EDGE('',*,*,#146,.F.);
#112=ORIENTED_EDGE('',*,*,#139,.F.);
#113=ORIENTED_EDGE('',*,*,#148,.T.);
#114=ORIENTED_EDGE('',*,*,#135,.T.);
#115=ORIENTED_EDGE('',*,*,#147,.F.);
#116=ORIENTED_EDGE('',*,*,#138,.F.);
#117=ORIENTED_EDGE('',*,*,#144,.T.);
#118=ORIENTED_EDGE('',*,*,#136,.T.);
#119=ORIENTED_EDGE('',*,*,#148,.F.);
#120=ORIENTED_EDGE('',*,*,#137,.F.);
#121=EDGE_CURVE('',#149,#149,#171,.T.);
#122=EDGE_CURVE('',#150,#150,#172,.F.);
#123=EDGE_CURVE('',#151,#151,#173,.T.);
#124=EDGE_CURVE('',#152,#152,#174,.T.);
#125=EDGE_CURVE('',#153,#153,#175,.T.);
#126=EDGE_CURVE('',#154,#154,#176,.T.);
#127=EDGE_CURVE('',#155,#155,#177,.T.);
#128=EDGE_CURVE('',#156,#156,#178,.T.);
#129=EDGE_CURVE('',#157,#157,#179,.T.);
#130=EDGE_CURVE('',#158,#158,#180,.T.);
#131=EDGE_CURVE('',#159,#160,#44,.T.);
#132=EDGE_CURVE('',#161,#159,#45,.T.);
#133=EDGE_CURVE('',#162,#161,#46,.T.);
#134=EDGE_CURVE('',#163,#162,#47,.T.);
#135=EDGE_CURVE('',#164,#163,#48,.T.);
#136=EDGE_CURVE('',#160,#164,#49,.T.);
#137=EDGE_CURVE('',#165,#166,#20,.T.);
#138=EDGE_CURVE('',#166,#167,#21,.T.);
#139=EDGE_CURVE('',#167,#168,#22,.T.);
#140=EDGE_CURVE('',#168,#169,#23,.T.);
#141=EDGE_CURVE('',#169,#170,#24,.T.);
#142=EDGE_CURVE('',#170,#165,#25,.T.);
#143=EDGE_CURVE('',#170,#159,#26,.T.);
#144=EDGE_CURVE('',#165,#160,#27,.T.);
#145=EDGE_CURVE('',#169,#161,#28,.T.);
#146=EDGE_CURVE('',#168,#162,#29,.T.);
#147=EDGE_CURVE('',#167,#163,#30,.T.);
#148=EDGE_CURVE('',#166,#164,#31,.T.);
#149=VERTEX_POINT('',#372);
#150=VERTEX_POINT('',#374);
#151=VERTEX_POINT('',#377);
#152=VERTEX_POINT('',#380);
#153=VERTEX_POINT('',#383);
#154=VERTEX_POINT('',#386);
#155=VERTEX_POINT('',#390);
#156=VERTEX_POINT('',#393);
#157=VERTEX_POINT('',#395);
#158=VERTEX_POINT('',#398);
#159=VERTEX_POINT('',#407);
#160=VERTEX_POINT('',#408);
#161=VERTEX_POINT('',#415);
#162=VERTEX_POINT('',#422);
#163=VERTEX_POINT('',#429);
#164=VERTEX_POINT('',#436);
#165=VERTEX_POINT('',#445);
#166=VERTEX_POINT('',#446);
#167=VERTEX_POINT('',#448);
#168=VERTEX_POINT('',#450);
#169=VERTEX_POINT('',#452);
#170=VERTEX_POINT('',#454);
#171=CIRCLE('',#272,9.);
#172=CIRCLE('',#273,9.);
#173=CIRCLE('',#275,9.3155);
#174=CIRCLE('',#277,10.4775);
#175=CIRCLE('',#279,10.4775);
#176=CIRCLE('',#281,9.3155);
#177=CIRCLE('',#284,12.);
#178=CIRCLE('',#286,6.5);
#179=CIRCLE('',#287,12.5);
#180=CIRCLE('',#289,12.5);
#181=EDGE_LOOP('',(#65));
#182=EDGE_LOOP('',(#66));
#183=EDGE_LOOP('',(#67));
#184=EDGE_LOOP('',(#68));
#185=EDGE_LOOP('',(#69));
#186=EDGE_LOOP('',(#70));
#187=EDGE_LOOP('',(#71));
#188=EDGE_LOOP('',(#72));
#189=EDGE_LOOP('',(#73));
#190=EDGE_LOOP('',(#74));
#191=EDGE_LOOP('',(#75));
#192=EDGE_LOOP('',(#76));
#193=EDGE_LOOP('',(#77));
#194=EDGE_LOOP('',(#78));
#195=EDGE_LOOP('',(#79));
#196=EDGE_LOOP('',(#80));
#197=EDGE_LOOP('',(#81));
#198=EDGE_LOOP('',(#82));
#199=EDGE_LOOP('',(#83));
#200=EDGE_LOOP('',(#84));
#201=EDGE_LOOP('',(#85,#86,#87,#88,#89,#90));
#202=EDGE_LOOP('',(#91,#92,#93,#94,#95,#96));
#203=EDGE_LOOP('',(#97,#98,#99,#100));
#204=EDGE_LOOP('',(#101,#102,#103,#104));
#205=EDGE_LOOP('',(#105,#106,#107,#108));
#206=EDGE_LOOP('',(#109,#110,#111,#112));
#207=EDGE_LOOP('',(#113,#114,#115,#116));
#208=EDGE_LOOP('',(#117,#118,#119,#120));
#209=FACE_BOUND('',#181,.T.);
#210=FACE_BOUND('',#182,.T.);
#211=FACE_BOUND('',#183,.T.);
#212=FACE_BOUND('',#184,.T.);
#213=FACE_BOUND('',#185,.T.);
#214=FACE_BOUND('',#186,.T.);
#215=FACE_BOUND('',#187,.T.);
#216=FACE_BOUND('',#188,.T.);
#217=FACE_BOUND('',#189,.T.);
#218=FACE_BOUND('',#190,.T.);
#219=FACE_BOUND('',#191,.T.);
#220=FACE_BOUND('',#192,.T.);
#221=FACE_BOUND('',#193,.T.);
#222=FACE_BOUND('',#194,.T.);
#223=FACE_BOUND('',#195,.T.);
#224=FACE_BOUND('',#196,.T.);
#225=FACE_BOUND('',#197,.T.);
#226=FACE_BOUND('',#198,.T.);
#227=FACE_BOUND('',#199,.T.);
#228=FACE_BOUND('',#200,.T.);
#229=FACE_BOUND('',#201,.T.);
#230=FACE_BOUND('',#202,.T.);
#231=FACE_BOUND('',#203,.T.);
#232=FACE_BOUND('',#204,.T.);
#233=FACE_BOUND('',#205,.T.);
#234=FACE_BOUND('',#206,.T.);
#235=FACE_BOUND('',#207,.T.);
#236=FACE_BOUND('',#208,.T.);
#237=CYLINDRICAL_SURFACE('',#271,9.);
#238=CYLINDRICAL_SURFACE('',#278,10.4775);
#239=CYLINDRICAL_SURFACE('',#288,12.5);
#240=ADVANCED_FACE('',(#209,#210),#237,.T.);
#241=ADVANCED_FACE('',(#211,#212),#54,.F.);
#242=ADVANCED_FACE('',(#213,#214),#51,.T.);
#243=ADVANCED_FACE('',(#215,#216),#238,.T.);
#244=ADVANCED_FACE('',(#217,#218),#52,.T.);
#245=ADVANCED_FACE('',(#219),#55,.F.);
#246=ADVANCED_FACE('',(#220,#221),#50,.T.);
#247=ADVANCED_FACE('',(#222,#223),#56,.T.);
#248=ADVANCED_FACE('',(#224,#225),#239,.T.);
#249=ADVANCED_FACE('',(#226,#227),#57,.F.);
#250=ADVANCED_FACE('',(#228,#229),#53,.F.);
#251=ADVANCED_FACE('',(#230),#58,.T.);
#252=ADVANCED_FACE('',(#231),#59,.F.);
#253=ADVANCED_FACE('',(#232),#60,.F.);
#254=ADVANCED_FACE('',(#233),#61,.F.);
#255=ADVANCED_FACE('',(#234),#62,.F.);
#256=ADVANCED_FACE('',(#235),#63,.F.);
#257=ADVANCED_FACE('',(#236),#64,.F.);
#258=CLOSED_SHELL('',(#240,#241,#242,#243,#244,#245,#246,#247,#248,#249,
#250,#251,#252,#253,#254,#255,#256,#257));
#259=STYLED_ITEM('',(#260),#267);
#260=PRESENTATION_STYLE_ASSIGNMENT((#261));
#261=SURFACE_STYLE_USAGE(.BOTH.,#262);
#262=SURFACE_SIDE_STYLE('',(#263));
#263=SURFACE_STYLE_FILL_AREA(#264);
#264=FILL_AREA_STYLE('',(#265));
#265=FILL_AREA_STYLE_COLOUR('',#266);
#266=COLOUR_RGB('',0.689999997615814,0.689999997615814,0.689999997615814);
#267=MANIFOLD_SOLID_BREP('GSC1/2-P01',#258);
#268=SHAPE_DEFINITION_REPRESENTATION(#474,#269);
#269=SHAPE_REPRESENTATION('GSC1/2-P01',(#270),#469);
#270=AXIS2_PLACEMENT_3D('',#369,#299,#300);
#271=AXIS2_PLACEMENT_3D('',#370,#301,#302);
#272=AXIS2_PLACEMENT_3D('',#371,#303,#304);
#273=AXIS2_PLACEMENT_3D('',#373,#305,#306);
#274=AXIS2_PLACEMENT_3D('',#375,#307,#308);
#275=AXIS2_PLACEMENT_3D('',#376,#309,#310);
#276=AXIS2_PLACEMENT_3D('',#378,#311,#312);
#277=AXIS2_PLACEMENT_3D('',#379,#313,#314);
#278=AXIS2_PLACEMENT_3D('',#381,#315,#316);
#279=AXIS2_PLACEMENT_3D('',#382,#317,#318);
#280=AXIS2_PLACEMENT_3D('',#384,#319,#320);
#281=AXIS2_PLACEMENT_3D('',#385,#321,#322);
#282=AXIS2_PLACEMENT_3D('',#387,#323,#324);
#283=AXIS2_PLACEMENT_3D('',#388,#325,#326);
#284=AXIS2_PLACEMENT_3D('',#389,#327,#328);
#285=AXIS2_PLACEMENT_3D('',#391,#329,#330);
#286=AXIS2_PLACEMENT_3D('',#392,#331,#332);
#287=AXIS2_PLACEMENT_3D('',#394,#333,#334);
#288=AXIS2_PLACEMENT_3D('',#396,#335,#336);
#289=AXIS2_PLACEMENT_3D('',#397,#337,#338);
#290=AXIS2_PLACEMENT_3D('',#399,#339,#340);
#291=AXIS2_PLACEMENT_3D('',#400,#341,#342);
#292=AXIS2_PLACEMENT_3D('',#443,#343,#344);
#293=AXIS2_PLACEMENT_3D('',#456,#351,#352);
#294=AXIS2_PLACEMENT_3D('',#459,#355,#356);
#295=AXIS2_PLACEMENT_3D('',#461,#358,#359);
#296=AXIS2_PLACEMENT_3D('',#463,#361,#362);
#297=AXIS2_PLACEMENT_3D('',#465,#364,#365);
#298=AXIS2_PLACEMENT_3D('',#467,#367,#368);
#299=DIRECTION('',(0.,0.,1.));
#300=DIRECTION('',(1.,0.,0.));
#301=DIRECTION('',(0.,-1.,0.));
#302=DIRECTION('',(0.,0.,-1.));
#303=DIRECTION('',(0.,-1.,0.));
#304=DIRECTION('',(0.,0.,-1.));
#305=DIRECTION('',(0.,1.,0.));
#306=DIRECTION('',(0.,0.,1.));
#307=DIRECTION('',(0.,-1.,0.));
#308=DIRECTION('',(0.,0.,-1.));
#309=DIRECTION('',(0.,-1.,0.));
#310=DIRECTION('',(0.,0.,-1.));
#311=DIRECTION('',(0.,-1.,0.));
#312=DIRECTION('',(0.,0.,-1.));
#313=DIRECTION('',(0.,-1.,0.));
#314=DIRECTION('',(0.,0.,-1.));
#315=DIRECTION('',(0.,-1.,0.));
#316=DIRECTION('',(0.,0.,-1.));
#317=DIRECTION('',(0.,-1.,0.));
#318=DIRECTION('',(0.,0.,-1.));
#319=DIRECTION('',(0.,1.,0.));
#320=DIRECTION('',(0.,0.,1.));
#321=DIRECTION('',(0.,-1.,0.));
#322=DIRECTION('',(0.,0.,-1.));
#323=DIRECTION('',(0.,1.,0.));
#324=DIRECTION('',(0.,0.,1.));
#325=DIRECTION('',(0.,-1.,0.));
#326=DIRECTION('',(0.,0.,-1.));
#327=DIRECTION('',(0.,1.,0.));
#328=DIRECTION('',(0.,0.,1.));
#329=DIRECTION('',(0.,1.,0.));
#330=DIRECTION('',(0.,0.,1.));
#331=DIRECTION('',(0.,1.,0.));
#332=DIRECTION('',(1.,0.,0.));
#333=DIRECTION('',(0.,1.,0.));
#334=DIRECTION('',(1.,0.,0.));
#335=DIRECTION('',(0.,-1.,0.));
#336=DIRECTION('',(0.,0.,-1.));
#337=DIRECTION('',(0.,1.,0.));
#338=DIRECTION('',(1.,0.,0.));
#339=DIRECTION('',(0.,1.,0.));
#340=DIRECTION('',(0.,0.,1.));
#341=DIRECTION('',(0.,1.,0.));
#342=DIRECTION('',(1.,0.,0.));
#343=DIRECTION('',(0.,1.,0.));
#344=DIRECTION('',(0.,0.,1.));
#345=DIRECTION('',(0.,0.,1.));
#346=DIRECTION('',(0.866025403784439,0.,0.5));
#347=DIRECTION('',(0.866025403784439,0.,-0.5));
#348=DIRECTION('',(0.,0.,-1.));
#349=DIRECTION('',(-0.866025403784439,0.,-0.5));
#350=DIRECTION('',(-0.866025403784439,0.,0.5));
#351=DIRECTION('',(-0.5,0.,-0.866025403784439));
#352=DIRECTION('',(-0.866025403784439,0.,0.5));
#353=DIRECTION('',(0.,1.,0.));
#354=DIRECTION('',(0.,1.,0.));
#355=DIRECTION('',(0.5,0.,-0.866025403784439));
#356=DIRECTION('',(-0.866025403784439,0.,-0.5));
#357=DIRECTION('',(0.,1.,0.));
#358=DIRECTION('',(1.,0.,0.));
#359=DIRECTION('',(0.,0.,-1.));
#360=DIRECTION('',(0.,1.,0.));
#361=DIRECTION('',(0.5,0.,0.866025403784439));
#362=DIRECTION('',(0.866025403784439,0.,-0.5));
#363=DIRECTION('',(0.,1.,0.));
#364=DIRECTION('',(-0.5,0.,0.866025403784439));
#365=DIRECTION('',(0.866025403784439,0.,0.5));
#366=DIRECTION('',(0.,1.,0.));
#367=DIRECTION('',(-1.,0.,0.));
#368=DIRECTION('',(0.,0.,1.));
#369=CARTESIAN_POINT('',(0.,0.,0.));
#370=CARTESIAN_POINT('',(0.,-10.,0.));
#371=CARTESIAN_POINT('',(0.,-0.999999999999999,0.));
#372=CARTESIAN_POINT('',(0.,-0.999999999999999,-9.));
#373=CARTESIAN_POINT('',(0.,0.,0.));
#374=CARTESIAN_POINT('',(0.,0.,9.));
#375=CARTESIAN_POINT('',(9.,-1.,0.));
#376=CARTESIAN_POINT('',(0.,-0.999999999999999,0.));
#377=CARTESIAN_POINT('',(0.,-0.999999999999999,-9.3155));
#378=CARTESIAN_POINT('',(0.,-0.999999999999999,0.));
#379=CARTESIAN_POINT('',(0.,-2.162,0.));
#380=CARTESIAN_POINT('',(0.,-2.162,-10.4775));
#381=CARTESIAN_POINT('',(0.,-10.,0.));
#382=CARTESIAN_POINT('',(0.,-8.838,0.));
#383=CARTESIAN_POINT('',(0.,-8.838,-10.4775));
#384=CARTESIAN_POINT('',(0.,-8.838,0.));
#385=CARTESIAN_POINT('',(0.,-10.,0.));
#386=CARTESIAN_POINT('',(0.,-10.,-9.3155));
#387=CARTESIAN_POINT('',(9.3155,-10.,0.));
#388=CARTESIAN_POINT('',(0.,0.,0.));
#389=CARTESIAN_POINT('',(0.,0.,0.));
#390=CARTESIAN_POINT('',(0.,0.,12.));
#391=CARTESIAN_POINT('',(0.,3.5,0.));
#392=CARTESIAN_POINT('',(0.,3.5,0.));
#393=CARTESIAN_POINT('',(6.5,3.5,0.));
#394=CARTESIAN_POINT('',(0.,3.5,0.));
#395=CARTESIAN_POINT('',(12.5,3.5,0.));
#396=CARTESIAN_POINT('',(0.,3.5,0.));
#397=CARTESIAN_POINT('',(0.,0.,0.));
#398=CARTESIAN_POINT('',(12.5,0.,0.));
#399=CARTESIAN_POINT('',(0.,0.,0.));
#400=CARTESIAN_POINT('',(0.,3.5,0.));
#401=CARTESIAN_POINT('',(-2.75849153996608E-17,2.77350269189626,-5.77350269189626));
#402=CARTESIAN_POINT('',(-0.390662036919737,2.54795385971848,-5.54795385971848));
#403=CARTESIAN_POINT('',(-1.18392087594824,2.16396794600156,-5.08996565546832));
#404=CARTESIAN_POINT('',(-2.93026498051045,1.83768992763412,-4.08171341660162));
#405=CARTESIAN_POINT('',(-4.21407414121583,2.31974818576395,-3.34050585208026));
#406=CARTESIAN_POINT('',(-5.00000000000005,2.77350269189611,-2.8867513459481));
#407=CARTESIAN_POINT('',(1.64314299194509E-19,2.77350269189626,-5.77350269189626));
#408=CARTESIAN_POINT('',(-5.,2.77350269189626,-2.88675134594813));
#409=CARTESIAN_POINT('',(5.,2.77350269189626,-2.88675134594813));
#410=CARTESIAN_POINT('',(4.60933796308026,2.54795385971848,-3.11230017812591));
#411=CARTESIAN_POINT('',(3.81607912405176,2.16396794600156,-3.57028838237606));
#412=CARTESIAN_POINT('',(2.06973501948955,1.83768992763412,-4.57854062124277));
#413=CARTESIAN_POINT('',(0.78592585878417,2.31974818576395,-5.31974818576413));
#414=CARTESIAN_POINT('',(-4.96643268146421E-14,2.77350269189611,-5.77350269189629));
#415=CARTESIAN_POINT('',(5.,2.77350269189626,-2.88675134594813));
#416=CARTESIAN_POINT('',(5.,2.77350269189625,2.88675134594813));
#417=CARTESIAN_POINT('',(5.,2.54836354497776,2.43647305211115));
#418=CARTESIAN_POINT('',(5.,2.15788076083243,1.50414820579016));
#419=CARTESIAN_POINT('',(5.,1.84011556737441,-0.515991912079928));
#420=CARTESIAN_POINT('',(5.,2.32581842445232,-1.99138281106025));
#421=CARTESIAN_POINT('',(5.,2.77350269189626,-2.88675134594813));
#422=CARTESIAN_POINT('',(5.,2.77350269189626,2.88675134594813));
#423=CARTESIAN_POINT('',(2.75849153996608E-17,2.77350269189626,5.77350269189626));
#424=CARTESIAN_POINT('',(0.390662036919737,2.54795385971848,5.54795385971848));
#425=CARTESIAN_POINT('',(1.18392087594824,2.16396794600156,5.08996565546832));
#426=CARTESIAN_POINT('',(2.93026498051045,1.83768992763412,4.08171341660162));
#427=CARTESIAN_POINT('',(4.21407414121583,2.31974818576395,3.34050585208026));
#428=CARTESIAN_POINT('',(5.00000000000005,2.77350269189611,2.8867513459481));
#429=CARTESIAN_POINT('',(-1.64314299194509E-19,2.77350269189626,5.77350269189626));
#430=CARTESIAN_POINT('',(-5.,2.77350269189626,2.88675134594813));
#431=CARTESIAN_POINT('',(-4.60933796308026,2.54795385971848,3.11230017812591));
#432=CARTESIAN_POINT('',(-3.81607912405176,2.16396794600156,3.57028838237606));
#433=CARTESIAN_POINT('',(-2.06973501948955,1.83768992763412,4.57854062124277));
#434=CARTESIAN_POINT('',(-0.78592585878417,2.31974818576395,5.31974818576413));
#435=CARTESIAN_POINT('',(4.96643268146421E-14,2.77350269189611,5.77350269189629));
#436=CARTESIAN_POINT('',(-5.,2.77350269189626,2.88675134594813));
#437=CARTESIAN_POINT('',(-5.,2.77350269189625,-2.88675134594813));
#438=CARTESIAN_POINT('',(-5.,2.54836354497776,-2.43647305211115));
#439=CARTESIAN_POINT('',(-5.,2.15788076083243,-1.50414820579016));
#440=CARTESIAN_POINT('',(-5.,1.84011556737441,0.515991912079928));
#441=CARTESIAN_POINT('',(-5.,2.32581842445232,1.99138281106025));
#442=CARTESIAN_POINT('',(-5.,2.77350269189626,2.88675134594813));
#443=CARTESIAN_POINT('',(0.,-6.5,0.));
#444=CARTESIAN_POINT('',(-5.,-6.5,-2.88675134594813));
#445=CARTESIAN_POINT('',(-5.,-6.5,-2.88675134594813));
#446=CARTESIAN_POINT('',(-5.,-6.5,2.88675134594813));
#447=CARTESIAN_POINT('',(-5.,-6.5,2.88675134594813));
#448=CARTESIAN_POINT('',(0.,-6.5,5.77350269189626));
#449=CARTESIAN_POINT('',(0.,-6.5,5.77350269189626));
#450=CARTESIAN_POINT('',(5.,-6.5,2.88675134594813));
#451=CARTESIAN_POINT('',(5.,-6.5,2.88675134594813));
#452=CARTESIAN_POINT('',(5.,-6.5,-2.88675134594813));
#453=CARTESIAN_POINT('',(5.,-6.5,-2.88675134594813));
#454=CARTESIAN_POINT('',(0.,-6.5,-5.77350269189626));
#455=CARTESIAN_POINT('',(0.,-6.5,-5.77350269189626));
#456=CARTESIAN_POINT('',(0.,-6.5,-5.77350269189626));
#457=CARTESIAN_POINT('',(0.,-6.5,-5.77350269189626));
#458=CARTESIAN_POINT('',(-5.,-6.5,-2.88675134594813));
#459=CARTESIAN_POINT('',(5.,-6.5,-2.88675134594813));
#460=CARTESIAN_POINT('',(5.,-6.5,-2.88675134594813));
#461=CARTESIAN_POINT('',(5.,-6.5,2.88675134594813));
#462=CARTESIAN_POINT('',(5.,-6.5,2.88675134594813));
#463=CARTESIAN_POINT('',(0.,-6.5,5.77350269189626));
#464=CARTESIAN_POINT('',(0.,-6.5,5.77350269189626));
#465=CARTESIAN_POINT('',(-5.,-6.5,2.88675134594813));
#466=CARTESIAN_POINT('',(-5.,-6.5,2.88675134594813));
#467=CARTESIAN_POINT('',(-5.,-6.5,-2.88675134594813));
#468=MECHANICAL_DESIGN_GEOMETRIC_PRESENTATION_REPRESENTATION('',(#259),
#469);
#469=(
GEOMETRIC_REPRESENTATION_CONTEXT(3)
GLOBAL_UNCERTAINTY_ASSIGNED_CONTEXT((#470))
GLOBAL_UNIT_ASSIGNED_CONTEXT((#473,#472,#471))
REPRESENTATION_CONTEXT('GSC1/2-P01','TOP_LEVEL_ASSEMBLY_PART')
);
#470=UNCERTAINTY_MEASURE_WITH_UNIT(LENGTH_MEASURE(0.005),#473,
'DISTANCE_ACCURACY_VALUE','Maximum Tolerance applied to model');
#471=(
NAMED_UNIT(*)
SI_UNIT($,.STERADIAN.)
SOLID_ANGLE_UNIT()
);
#472=(
NAMED_UNIT(*)
PLANE_ANGLE_UNIT()
SI_UNIT($,.RADIAN.)
);
#473=(
LENGTH_UNIT()
NAMED_UNIT(*)
SI_UNIT(.MILLI.,.METRE.)
);
#474=PRODUCT_DEFINITION_SHAPE('','',#475);
#475=PRODUCT_DEFINITION('','',#477,#476);
#476=DESIGN_CONTEXT('',#483,'design');
#477=PRODUCT_DEFINITION_FORMATION_WITH_SPECIFIED_SOURCE('','',#479,
 .NOT_KNOWN.);
#478=PRODUCT_RELATED_PRODUCT_CATEGORY('','',(#479));
#479=PRODUCT('GSC1/2-P01','GSC1/2-P01','GSC1/2-P01',(#481));
#480=PRODUCT_CATEGORY('','');
#481=MECHANICAL_CONTEXT('',#483,'mechanical');
#482=APPLICATION_PROTOCOL_DEFINITION('international standard',
'config_control_design',2010,#483);
#483=APPLICATION_CONTEXT(
'configuration controlled 3D designs of mechanical parts and assemblie
s');
ENDSEC;
END-ISO-10303-21;
