ISO-10303-21;
HEADER;
/* Generated by software containing ST-Developer
 * from STEP Tools, Inc. (www.steptools.com) 
 */
/* OPTION: using custom renumber hook */

FILE_DESCRIPTION(
/* description */ ('STEP AP203'),
/* implementation_level */ '2;1');

FILE_NAME(
/* name */ 'FJ-M36x2BJ',
/* time_stamp */ '2024-05-13T13:48:06+02:00',
/* author */ ('License CC BY-ND 4.0'),
/* organization */ ('CADENAS'),
/* preprocessor_version */ 'ST-DEVELOPER v19.3',
/* originating_system */ 'PARTsolutions',
/* authorisation */ '  ');

FILE_SCHEMA (('CONFIG_CONTROL_DESIGN'));
ENDSEC;

DATA;
#10=PROPERTY_DEFINITION_REPRESENTATION(#14,#12);
#11=PROPERTY_DEFINITION_REPRESENTATION(#15,#13);
#12=REPRESENTATION('',(#16),#517);
#13=REPRESENTATION('',(#17),#517);
#14=PROPERTY_DEFINITION('pmi validation property','',#522);
#15=PROPERTY_DEFINITION('pmi validation property','',#522);
#16=VALUE_REPRESENTATION_ITEM('number of annotations',COUNT_MEASURE(0.));
#17=VALUE_REPRESENTATION_ITEM('number of views',COUNT_MEASURE(0.));
#18=SHAPE_REPRESENTATION_RELATIONSHIP('','',#279,#19);
#19=ADVANCED_BREP_SHAPE_REPRESENTATION('',(#277),#517);
#20=SPHERICAL_SURFACE('',#290,40.);
#21=CONICAL_SURFACE('',#288,32.9754038131574,0.601681335547464);
#22=CONICAL_SURFACE('',#294,32.9754038131574,0.601681335547464);
#23=CONICAL_SURFACE('',#314,16.9175,0.785398163397455);
#24=B_SPLINE_CURVE_WITH_KNOTS('',3,(#408,#409,#410,#411,#412,#413,#414,
#415,#416,#417,#418,#419,#420,#421,#422,#423,#424),.UNSPECIFIED.,.F.,.F.,
(4,1,1,1,1,1,1,1,1,1,1,1,1,1,4),(6.93889390390723E-18,0.0026869111861026,
0.00537382237220519,0.00806073355830778,0.0107476447444104,0.0161214671166155,
0.0188083783027181,0.0214952894888207,0.0268691118610259,0.0295560230471285,
0.0322429342332311,0.0349298454193337,0.0376167566054363,0.0403036677915389,
0.0429905789776414),.UNSPECIFIED.);
#25=B_SPLINE_CURVE_WITH_KNOTS('',3,(#429,#430,#431,#432,#433,#434,#435,
#436,#437,#438,#439,#440,#441,#442,#443,#444,#445),.UNSPECIFIED.,.F.,.F.,
(4,1,1,1,1,1,1,1,1,1,1,1,1,1,4),(7.152448122691E-18,0.0026869111861026,
0.00537382237220519,0.00806073355830778,0.0107476447444104,0.0161214671166155,
0.0188083783027181,0.0214952894888207,0.0268691118610259,0.0295560230471285,
0.0322429342332311,0.0349298454193337,0.0376167566054363,0.0403036677915388,
0.0429905789776414),.UNSPECIFIED.);
#26=B_SPLINE_CURVE_WITH_KNOTS('',3,(#452,#453,#454,#455,#456),
 .UNSPECIFIED.,.F.,.F.,(4,1,4),(8.79663930871204E-7,0.0108886938912339,
0.0217765081185369),.UNSPECIFIED.);
#27=B_SPLINE_CURVE_WITH_KNOTS('',3,(#457,#458,#459,#460,#461),
 .UNSPECIFIED.,.F.,.F.,(4,1,4),(8.79663930871204E-7,0.0108886938912339,
0.0217765081185369),.UNSPECIFIED.);
#28=B_SPLINE_CURVE_WITH_KNOTS('',3,(#469,#470,#471,#472,#473),
 .UNSPECIFIED.,.F.,.F.,(4,1,4),(0.0610410406514638,0.0720288264333009,0.0830166122151379),
 .UNSPECIFIED.);
#29=B_SPLINE_CURVE_WITH_KNOTS('',3,(#474,#475,#476,#477,#478),
 .UNSPECIFIED.,.F.,.F.,(4,1,4),(0.0610410406514638,0.0720288264333009,0.0830166122151379),
 .UNSPECIFIED.);
#30=CYLINDRICAL_SURFACE('',#285,21.4);
#31=CYLINDRICAL_SURFACE('',#299,17.5);
#32=CYLINDRICAL_SURFACE('',#300,7.14999999999998);
#33=CYLINDRICAL_SURFACE('',#301,7.14999999999998);
#34=CYLINDRICAL_SURFACE('',#303,23.4);
#35=CYLINDRICAL_SURFACE('',#306,23.4);
#36=CYLINDRICAL_SURFACE('',#312,16.9175);
#37=CIRCLE('',#282,23.4);
#38=CIRCLE('',#283,23.4);
#39=CIRCLE('',#284,21.4);
#40=CIRCLE('',#286,21.4);
#41=CIRCLE('',#287,21.4);
#42=CIRCLE('',#289,32.9754038131574);
#43=CIRCLE('',#291,37.3756270850403);
#44=CIRCLE('',#292,37.3756270850403);
#45=CIRCLE('',#293,32.9754038131574);
#46=CIRCLE('',#296,17.5);
#47=CIRCLE('',#298,17.5);
#48=CIRCLE('',#304,23.4);
#49=CIRCLE('',#307,23.4);
#50=CIRCLE('',#309,18.);
#51=CIRCLE('',#311,16.9175);
#52=CIRCLE('',#313,16.9175);
#53=ORIENTED_EDGE('',*,*,#117,.F.);
#54=ORIENTED_EDGE('',*,*,#118,.F.);
#55=ORIENTED_EDGE('',*,*,#119,.F.);
#56=ORIENTED_EDGE('',*,*,#120,.F.);
#57=ORIENTED_EDGE('',*,*,#121,.T.);
#58=ORIENTED_EDGE('',*,*,#121,.F.);
#59=ORIENTED_EDGE('',*,*,#122,.F.);
#60=ORIENTED_EDGE('',*,*,#123,.T.);
#61=ORIENTED_EDGE('',*,*,#124,.F.);
#62=ORIENTED_EDGE('',*,*,#125,.T.);
#63=ORIENTED_EDGE('',*,*,#126,.T.);
#64=ORIENTED_EDGE('',*,*,#127,.T.);
#65=ORIENTED_EDGE('',*,*,#123,.F.);
#66=ORIENTED_EDGE('',*,*,#128,.F.);
#67=ORIENTED_EDGE('',*,*,#129,.F.);
#68=ORIENTED_EDGE('',*,*,#126,.F.);
#69=ORIENTED_EDGE('',*,*,#130,.T.);
#70=ORIENTED_EDGE('',*,*,#131,.F.);
#71=ORIENTED_EDGE('',*,*,#132,.F.);
#72=ORIENTED_EDGE('',*,*,#125,.F.);
#73=ORIENTED_EDGE('',*,*,#133,.T.);
#74=ORIENTED_EDGE('',*,*,#131,.T.);
#75=ORIENTED_EDGE('',*,*,#134,.F.);
#76=ORIENTED_EDGE('',*,*,#128,.T.);
#77=ORIENTED_EDGE('',*,*,#135,.T.);
#78=ORIENTED_EDGE('',*,*,#132,.T.);
#79=ORIENTED_EDGE('',*,*,#130,.F.);
#80=ORIENTED_EDGE('',*,*,#136,.T.);
#81=ORIENTED_EDGE('',*,*,#129,.T.);
#82=ORIENTED_EDGE('',*,*,#133,.F.);
#83=ORIENTED_EDGE('',*,*,#137,.F.);
#84=ORIENTED_EDGE('',*,*,#127,.F.);
#85=ORIENTED_EDGE('',*,*,#134,.T.);
#86=ORIENTED_EDGE('',*,*,#136,.F.);
#87=ORIENTED_EDGE('',*,*,#137,.T.);
#88=ORIENTED_EDGE('',*,*,#124,.T.);
#89=ORIENTED_EDGE('',*,*,#122,.T.);
#90=ORIENTED_EDGE('',*,*,#135,.F.);
#91=ORIENTED_EDGE('',*,*,#138,.F.);
#92=ORIENTED_EDGE('',*,*,#139,.F.);
#93=ORIENTED_EDGE('',*,*,#117,.T.);
#94=ORIENTED_EDGE('',*,*,#140,.T.);
#95=ORIENTED_EDGE('',*,*,#141,.T.);
#96=ORIENTED_EDGE('',*,*,#142,.F.);
#97=ORIENTED_EDGE('',*,*,#118,.T.);
#98=ORIENTED_EDGE('',*,*,#139,.T.);
#99=ORIENTED_EDGE('',*,*,#143,.F.);
#100=ORIENTED_EDGE('',*,*,#144,.F.);
#101=ORIENTED_EDGE('',*,*,#119,.T.);
#102=ORIENTED_EDGE('',*,*,#142,.T.);
#103=ORIENTED_EDGE('',*,*,#145,.F.);
#104=ORIENTED_EDGE('',*,*,#140,.F.);
#105=ORIENTED_EDGE('',*,*,#120,.T.);
#106=ORIENTED_EDGE('',*,*,#144,.T.);
#107=ORIENTED_EDGE('',*,*,#146,.F.);
#108=ORIENTED_EDGE('',*,*,#143,.T.);
#109=ORIENTED_EDGE('',*,*,#141,.F.);
#110=ORIENTED_EDGE('',*,*,#138,.T.);
#111=ORIENTED_EDGE('',*,*,#145,.T.);
#112=ORIENTED_EDGE('',*,*,#147,.T.);
#113=ORIENTED_EDGE('',*,*,#148,.T.);
#114=ORIENTED_EDGE('',*,*,#147,.F.);
#115=ORIENTED_EDGE('',*,*,#146,.T.);
#116=ORIENTED_EDGE('',*,*,#148,.F.);
#117=EDGE_CURVE('',#149,#150,#171,.T.);
#118=EDGE_CURVE('',#151,#149,#37,.T.);
#119=EDGE_CURVE('',#152,#151,#172,.T.);
#120=EDGE_CURVE('',#150,#152,#38,.T.);
#121=EDGE_CURVE('',#153,#153,#39,.T.);
#122=EDGE_CURVE('',#154,#155,#24,.T.);
#123=EDGE_CURVE('',#154,#156,#40,.T.);
#124=EDGE_CURVE('',#157,#156,#25,.T.);
#125=EDGE_CURVE('',#157,#155,#41,.T.);
#126=EDGE_CURVE('',#158,#159,#42,.T.);
#127=EDGE_CURVE('',#159,#156,#26,.T.);
#128=EDGE_CURVE('',#158,#154,#27,.T.);
#129=EDGE_CURVE('',#159,#160,#43,.F.);
#130=EDGE_CURVE('',#158,#161,#44,.F.);
#131=EDGE_CURVE('',#160,#161,#45,.T.);
#132=EDGE_CURVE('',#155,#161,#28,.T.);
#133=EDGE_CURVE('',#157,#160,#29,.T.);
#134=EDGE_CURVE('',#162,#162,#46,.T.);
#135=EDGE_CURVE('',#154,#155,#173,.T.);
#136=EDGE_CURVE('',#163,#163,#47,.T.);
#137=EDGE_CURVE('',#156,#157,#174,.T.);
#138=EDGE_CURVE('',#164,#165,#175,.T.);
#139=EDGE_CURVE('',#149,#164,#176,.T.);
#140=EDGE_CURVE('',#150,#165,#177,.T.);
#141=EDGE_CURVE('',#164,#166,#48,.T.);
#142=EDGE_CURVE('',#151,#166,#178,.T.);
#143=EDGE_CURVE('',#167,#166,#179,.T.);
#144=EDGE_CURVE('',#152,#167,#180,.T.);
#145=EDGE_CURVE('',#165,#167,#49,.T.);
#146=EDGE_CURVE('',#168,#168,#50,.T.);
#147=EDGE_CURVE('',#169,#169,#51,.T.);
#148=EDGE_CURVE('',#170,#170,#52,.T.);
#149=VERTEX_POINT('',#398);
#150=VERTEX_POINT('',#399);
#151=VERTEX_POINT('',#401);
#152=VERTEX_POINT('',#403);
#153=VERTEX_POINT('',#406);
#154=VERTEX_POINT('',#425);
#155=VERTEX_POINT('',#426);
#156=VERTEX_POINT('',#428);
#157=VERTEX_POINT('',#446);
#158=VERTEX_POINT('',#450);
#159=VERTEX_POINT('',#451);
#160=VERTEX_POINT('',#464);
#161=VERTEX_POINT('',#466);
#162=VERTEX_POINT('',#481);
#163=VERTEX_POINT('',#485);
#164=VERTEX_POINT('',#492);
#165=VERTEX_POINT('',#493);
#166=VERTEX_POINT('',#498);
#167=VERTEX_POINT('',#502);
#168=VERTEX_POINT('',#508);
#169=VERTEX_POINT('',#511);
#170=VERTEX_POINT('',#514);
#171=LINE('',#397,#181);
#172=LINE('',#402,#182);
#173=LINE('',#482,#183);
#174=LINE('',#486,#184);
#175=LINE('',#491,#185);
#176=LINE('',#494,#186);
#177=LINE('',#495,#187);
#178=LINE('',#499,#188);
#179=LINE('',#501,#189);
#180=LINE('',#503,#190);
#181=VECTOR('',#319,1000.);
#182=VECTOR('',#322,1000.);
#183=VECTOR('',#351,1000.);
#184=VECTOR('',#356,1000.);
#185=VECTOR('',#365,1000.);
#186=VECTOR('',#366,1000.);
#187=VECTOR('',#367,1000.);
#188=VECTOR('',#372,1000.);
#189=VECTOR('',#375,1000.);
#190=VECTOR('',#376,1000.);
#191=EDGE_LOOP('',(#53,#54,#55,#56));
#192=EDGE_LOOP('',(#57));
#193=EDGE_LOOP('',(#58));
#194=EDGE_LOOP('',(#59,#60,#61,#62));
#195=EDGE_LOOP('',(#63,#64,#65,#66));
#196=EDGE_LOOP('',(#67,#68,#69,#70));
#197=EDGE_LOOP('',(#71,#72,#73,#74));
#198=EDGE_LOOP('',(#75));
#199=EDGE_LOOP('',(#76,#77,#78,#79));
#200=EDGE_LOOP('',(#80));
#201=EDGE_LOOP('',(#81,#82,#83,#84));
#202=EDGE_LOOP('',(#85));
#203=EDGE_LOOP('',(#86));
#204=EDGE_LOOP('',(#87,#88));
#205=EDGE_LOOP('',(#89,#90));
#206=EDGE_LOOP('',(#91,#92,#93,#94));
#207=EDGE_LOOP('',(#95,#96,#97,#98));
#208=EDGE_LOOP('',(#99,#100,#101,#102));
#209=EDGE_LOOP('',(#103,#104,#105,#106));
#210=EDGE_LOOP('',(#107));
#211=EDGE_LOOP('',(#108,#109,#110,#111));
#212=EDGE_LOOP('',(#112));
#213=EDGE_LOOP('',(#113));
#214=EDGE_LOOP('',(#114));
#215=EDGE_LOOP('',(#115));
#216=EDGE_LOOP('',(#116));
#217=FACE_BOUND('',#191,.T.);
#218=FACE_BOUND('',#192,.T.);
#219=FACE_BOUND('',#193,.T.);
#220=FACE_BOUND('',#194,.T.);
#221=FACE_BOUND('',#195,.T.);
#222=FACE_BOUND('',#196,.T.);
#223=FACE_BOUND('',#197,.T.);
#224=FACE_BOUND('',#198,.T.);
#225=FACE_BOUND('',#199,.T.);
#226=FACE_BOUND('',#200,.T.);
#227=FACE_BOUND('',#201,.T.);
#228=FACE_BOUND('',#202,.T.);
#229=FACE_BOUND('',#203,.T.);
#230=FACE_BOUND('',#204,.T.);
#231=FACE_BOUND('',#205,.T.);
#232=FACE_BOUND('',#206,.T.);
#233=FACE_BOUND('',#207,.T.);
#234=FACE_BOUND('',#208,.T.);
#235=FACE_BOUND('',#209,.T.);
#236=FACE_BOUND('',#210,.T.);
#237=FACE_BOUND('',#211,.T.);
#238=FACE_BOUND('',#212,.T.);
#239=FACE_BOUND('',#213,.T.);
#240=FACE_BOUND('',#214,.T.);
#241=FACE_BOUND('',#215,.T.);
#242=FACE_BOUND('',#216,.T.);
#243=PLANE('',#281);
#244=PLANE('',#295);
#245=PLANE('',#297);
#246=PLANE('',#302);
#247=PLANE('',#305);
#248=PLANE('',#308);
#249=PLANE('',#310);
#250=ADVANCED_FACE('',(#217,#218),#243,.F.);
#251=ADVANCED_FACE('',(#219,#220),#30,.T.);
#252=ADVANCED_FACE('',(#221),#21,.T.);
#253=ADVANCED_FACE('',(#222),#20,.T.);
#254=ADVANCED_FACE('',(#223),#22,.T.);
#255=ADVANCED_FACE('',(#224,#225),#244,.T.);
#256=ADVANCED_FACE('',(#226,#227),#245,.F.);
#257=ADVANCED_FACE('',(#228,#229),#31,.F.);
#258=ADVANCED_FACE('',(#230),#32,.F.);
#259=ADVANCED_FACE('',(#231),#33,.F.);
#260=ADVANCED_FACE('',(#232),#246,.T.);
#261=ADVANCED_FACE('',(#233),#34,.T.);
#262=ADVANCED_FACE('',(#234),#247,.T.);
#263=ADVANCED_FACE('',(#235),#35,.T.);
#264=ADVANCED_FACE('',(#236,#237),#248,.F.);
#265=ADVANCED_FACE('',(#238),#249,.T.);
#266=ADVANCED_FACE('',(#239,#240),#36,.F.);
#267=ADVANCED_FACE('',(#241,#242),#23,.F.);
#268=CLOSED_SHELL('',(#250,#251,#252,#253,#254,#255,#256,#257,#258,#259,
#260,#261,#262,#263,#264,#265,#266,#267));
#269=STYLED_ITEM('',(#270),#277);
#270=PRESENTATION_STYLE_ASSIGNMENT((#271));
#271=SURFACE_STYLE_USAGE(.BOTH.,#272);
#272=SURFACE_SIDE_STYLE('',(#273));
#273=SURFACE_STYLE_FILL_AREA(#274);
#274=FILL_AREA_STYLE('',(#275));
#275=FILL_AREA_STYLE_COLOUR('',#276);
#276=COLOUR_RGB('',0.689999997615814,0.689999997615814,0.689999997615814);
#277=MANIFOLD_SOLID_BREP('FJ-M36x2BJ',#268);
#278=SHAPE_DEFINITION_REPRESENTATION(#522,#279);
#279=SHAPE_REPRESENTATION('FJ-M36x2BJ',(#280),#517);
#280=AXIS2_PLACEMENT_3D('',#395,#315,#316);
#281=AXIS2_PLACEMENT_3D('',#396,#317,#318);
#282=AXIS2_PLACEMENT_3D('',#400,#320,#321);
#283=AXIS2_PLACEMENT_3D('',#404,#323,#324);
#284=AXIS2_PLACEMENT_3D('',#405,#325,#326);
#285=AXIS2_PLACEMENT_3D('',#407,#327,#328);
#286=AXIS2_PLACEMENT_3D('',#427,#329,#330);
#287=AXIS2_PLACEMENT_3D('',#447,#331,#332);
#288=AXIS2_PLACEMENT_3D('',#448,#333,#334);
#289=AXIS2_PLACEMENT_3D('',#449,#335,#336);
#290=AXIS2_PLACEMENT_3D('',#462,#337,#338);
#291=AXIS2_PLACEMENT_3D('',#463,#339,#340);
#292=AXIS2_PLACEMENT_3D('',#465,#341,#342);
#293=AXIS2_PLACEMENT_3D('',#467,#343,#344);
#294=AXIS2_PLACEMENT_3D('',#468,#345,#346);
#295=AXIS2_PLACEMENT_3D('',#479,#347,#348);
#296=AXIS2_PLACEMENT_3D('',#480,#349,#350);
#297=AXIS2_PLACEMENT_3D('',#483,#352,#353);
#298=AXIS2_PLACEMENT_3D('',#484,#354,#355);
#299=AXIS2_PLACEMENT_3D('',#487,#357,#358);
#300=AXIS2_PLACEMENT_3D('',#488,#359,#360);
#301=AXIS2_PLACEMENT_3D('',#489,#361,#362);
#302=AXIS2_PLACEMENT_3D('',#490,#363,#364);
#303=AXIS2_PLACEMENT_3D('',#496,#368,#369);
#304=AXIS2_PLACEMENT_3D('',#497,#370,#371);
#305=AXIS2_PLACEMENT_3D('',#500,#373,#374);
#306=AXIS2_PLACEMENT_3D('',#504,#377,#378);
#307=AXIS2_PLACEMENT_3D('',#505,#379,#380);
#308=AXIS2_PLACEMENT_3D('',#506,#381,#382);
#309=AXIS2_PLACEMENT_3D('',#507,#383,#384);
#310=AXIS2_PLACEMENT_3D('',#509,#385,#386);
#311=AXIS2_PLACEMENT_3D('',#510,#387,#388);
#312=AXIS2_PLACEMENT_3D('',#512,#389,#390);
#313=AXIS2_PLACEMENT_3D('',#513,#391,#392);
#314=AXIS2_PLACEMENT_3D('',#515,#393,#394);
#315=DIRECTION('',(0.,0.,1.));
#316=DIRECTION('',(1.,0.,0.));
#317=DIRECTION('',(0.,-1.,0.));
#318=DIRECTION('',(0.,0.,-1.));
#319=DIRECTION('',(-1.,0.,0.));
#320=DIRECTION('',(0.,-1.,0.));
#321=DIRECTION('',(1.,0.,0.));
#322=DIRECTION('',(1.,0.,0.));
#323=DIRECTION('',(0.,-1.,0.));
#324=DIRECTION('',(1.,0.,0.));
#325=DIRECTION('',(0.,-1.,0.));
#326=DIRECTION('',(0.,0.,-1.));
#327=DIRECTION('',(0.,-1.,0.));
#328=DIRECTION('',(0.,0.,-1.));
#329=DIRECTION('',(0.,-1.,0.));
#330=DIRECTION('',(0.,0.,-1.));
#331=DIRECTION('',(0.,-1.,0.));
#332=DIRECTION('',(0.,0.,-1.));
#333=DIRECTION('',(0.,1.,0.));
#334=DIRECTION('',(0.,0.,1.));
#335=DIRECTION('',(0.,-1.,0.));
#336=DIRECTION('',(0.,0.,-1.));
#337=DIRECTION('',(0.,-1.,0.));
#338=DIRECTION('',(1.,0.,0.));
#339=DIRECTION('',(0.,0.,1.));
#340=DIRECTION('',(1.,0.,0.));
#341=DIRECTION('',(0.,0.,1.));
#342=DIRECTION('',(1.,0.,0.));
#343=DIRECTION('',(0.,-1.,0.));
#344=DIRECTION('',(0.,0.,-1.));
#345=DIRECTION('',(0.,1.,0.));
#346=DIRECTION('',(0.,0.,1.));
#347=DIRECTION('',(0.,0.,1.));
#348=DIRECTION('',(1.,0.,0.));
#349=DIRECTION('',(0.,0.,1.));
#350=DIRECTION('',(1.,0.,0.));
#351=DIRECTION('',(1.,0.,0.));
#352=DIRECTION('',(0.,0.,1.));
#353=DIRECTION('',(1.,0.,0.));
#354=DIRECTION('',(0.,0.,1.));
#355=DIRECTION('',(1.,0.,0.));
#356=DIRECTION('',(1.,0.,0.));
#357=DIRECTION('',(0.,0.,-1.));
#358=DIRECTION('',(-1.,0.,0.));
#359=DIRECTION('',(-1.,0.,0.));
#360=DIRECTION('',(0.,0.,1.));
#361=DIRECTION('',(-1.,0.,0.));
#362=DIRECTION('',(0.,0.,1.));
#363=DIRECTION('',(0.,0.,1.));
#364=DIRECTION('',(1.,0.,0.));
#365=DIRECTION('',(-1.,0.,0.));
#366=DIRECTION('',(0.,-1.,0.));
#367=DIRECTION('',(0.,-1.,0.));
#368=DIRECTION('',(0.,-1.,0.));
#369=DIRECTION('',(0.,0.,-1.));
#370=DIRECTION('',(0.,1.,0.));
#371=DIRECTION('',(0.,0.,1.));
#372=DIRECTION('',(0.,-1.,0.));
#373=DIRECTION('',(0.,0.,-1.));
#374=DIRECTION('',(-1.,0.,0.));
#375=DIRECTION('',(1.,0.,0.));
#376=DIRECTION('',(0.,-1.,0.));
#377=DIRECTION('',(0.,-1.,0.));
#378=DIRECTION('',(0.,0.,-1.));
#379=DIRECTION('',(0.,-1.,0.));
#380=DIRECTION('',(1.,0.,0.));
#381=DIRECTION('',(0.,1.,0.));
#382=DIRECTION('',(0.,0.,1.));
#383=DIRECTION('',(6.12323399573676E-17,-1.,0.));
#384=DIRECTION('',(1.,6.12323399573676E-17,0.));
#385=DIRECTION('',(6.12323399573676E-17,-1.,0.));
#386=DIRECTION('',(1.,6.12323399573676E-17,0.));
#387=DIRECTION('',(6.12323399573676E-17,-1.,0.));
#388=DIRECTION('',(1.,6.12323399573676E-17,0.));
#389=DIRECTION('',(6.12323399573676E-17,-1.,0.));
#390=DIRECTION('',(1.,6.12323399573676E-17,0.));
#391=DIRECTION('',(6.12323399573676E-17,-1.,0.));
#392=DIRECTION('',(1.,6.12323399573676E-17,0.));
#393=DIRECTION('',(6.12323399573676E-17,-1.,0.));
#394=DIRECTION('',(1.,6.12323399573676E-17,0.));
#395=CARTESIAN_POINT('',(0.,0.,0.));
#396=CARTESIAN_POINT('',(21.4,-99.,0.));
#397=CARTESIAN_POINT('',(9.23634126697362,-99.,21.5));
#398=CARTESIAN_POINT('',(9.23634126697363,-99.,21.5));
#399=CARTESIAN_POINT('',(-9.23634126697362,-99.,21.5));
#400=CARTESIAN_POINT('',(0.,-99.,-1.73472347597681E-15));
#401=CARTESIAN_POINT('',(9.23634126697363,-99.,-21.5));
#402=CARTESIAN_POINT('',(-9.23634126697363,-99.,-21.5));
#403=CARTESIAN_POINT('',(-9.23634126697363,-99.,-21.5));
#404=CARTESIAN_POINT('',(3.46944695195361E-15,-99.,0.));
#405=CARTESIAN_POINT('',(0.,-99.,0.));
#406=CARTESIAN_POINT('',(0.,-99.,-21.4));
#407=CARTESIAN_POINT('',(0.,-127.5,0.));
#408=CARTESIAN_POINT('',(-15.9655097006015,-39.5,14.25));
#409=CARTESIAN_POINT('',(-15.9655097006015,-40.409890034162,14.25));
#410=CARTESIAN_POINT('',(-15.6564064211059,-42.1925184501991,14.6076017078542));
#411=CARTESIAN_POINT('',(-14.3607468052382,-44.2630017724824,15.9164463617116));
#412=CARTESIAN_POINT('',(-12.4942766216678,-45.5355526826338,17.4359833937701));
#413=CARTESIAN_POINT('',(-9.53873240661105,-46.4440171974102,19.3001072110762));
#414=CARTESIAN_POINT('',(-6.17179331814363,-46.6251780619494,20.625728747147));
#415=CARTESIAN_POINT('',(-2.68717263433581,-46.6521396542067,21.2868922999998));
#416=CARTESIAN_POINT('',(0.911471376242307,-46.6462703521154,21.5122475216633));
#417=CARTESIAN_POINT('',(4.44515794613823,-46.6675489183651,21.0666866740993));
#418=CARTESIAN_POINT('',(7.86667221322009,-46.5274018285017,19.9619072055445));
#419=CARTESIAN_POINT('',(10.2759449108136,-46.2185339289085,18.8336339002336));
#420=CARTESIAN_POINT('',(12.4964021624768,-45.5347539725559,17.4350339735798));
#421=CARTESIAN_POINT('',(14.3627784494593,-44.2603167430298,15.9143590624344));
#422=CARTESIAN_POINT('',(15.6554983494974,-42.1942197256754,14.6085430475677));
#423=CARTESIAN_POINT('',(15.9655097006015,-40.4097795695012,14.25));
#424=CARTESIAN_POINT('',(15.9655097006015,-39.5,14.25));
#425=CARTESIAN_POINT('',(-15.9655097006014,-39.5,14.25));
#426=CARTESIAN_POINT('',(15.9655097006015,-39.5,14.25));
#427=CARTESIAN_POINT('',(0.,-39.5,0.));
#428=CARTESIAN_POINT('',(-15.9655097006015,-39.5,-14.25));
#429=CARTESIAN_POINT('',(15.9655097006015,-39.5,-14.25));
#430=CARTESIAN_POINT('',(15.9655097006015,-40.409890034162,-14.25));
#431=CARTESIAN_POINT('',(15.6564064211059,-42.1925184501991,-14.6076017078542));
#432=CARTESIAN_POINT('',(14.3607468052382,-44.2630017724824,-15.9164463617116));
#433=CARTESIAN_POINT('',(12.4942766216678,-45.5355526826338,-17.4359833937701));
#434=CARTESIAN_POINT('',(9.53873240661105,-46.4440171974102,-19.3001072110762));
#435=CARTESIAN_POINT('',(6.17179331814364,-46.6251780619494,-20.625728747147));
#436=CARTESIAN_POINT('',(2.68717263433583,-46.6521396542067,-21.2868922999998));
#437=CARTESIAN_POINT('',(-0.911471376242295,-46.6462703521153,-21.5122475216633));
#438=CARTESIAN_POINT('',(-4.44515794613822,-46.6675489183651,-21.0666866740993));
#439=CARTESIAN_POINT('',(-7.86667221322009,-46.5274018285017,-19.9619072055445));
#440=CARTESIAN_POINT('',(-10.2759449108135,-46.2185339289085,-18.8336339002336));
#441=CARTESIAN_POINT('',(-12.4964021624768,-45.5347539725559,-17.4350339735798));
#442=CARTESIAN_POINT('',(-14.3627784494593,-44.2603167430298,-15.9143590624344));
#443=CARTESIAN_POINT('',(-15.6554983494974,-42.1942197256754,-14.6085430475677));
#444=CARTESIAN_POINT('',(-15.9655097006015,-40.4097795695012,-14.25));
#445=CARTESIAN_POINT('',(-15.9655097006015,-39.5,-14.25));
#446=CARTESIAN_POINT('',(15.9655097006015,-39.5,-14.25));
#447=CARTESIAN_POINT('',(0.,-39.5,0.));
#448=CARTESIAN_POINT('',(0.,-22.64117363034,0.));
#449=CARTESIAN_POINT('',(0.,-22.64117363034,0.));
#450=CARTESIAN_POINT('',(-29.7374302292716,-22.64117363034,14.25));
#451=CARTESIAN_POINT('',(-29.7374302292716,-22.64117363034,-14.25));
#452=CARTESIAN_POINT('',(-29.7374302292716,-22.6411736303401,-14.25));
#453=CARTESIAN_POINT('',(-27.5385785835341,-25.5291951820151,-14.25));
#454=CARTESIAN_POINT('',(-23.0855498615524,-31.2612571369866,-14.25));
#455=CARTESIAN_POINT('',(-18.4232930638239,-36.8294310077761,-14.25));
#456=CARTESIAN_POINT('',(-15.9655097006015,-39.5,-14.25));
#457=CARTESIAN_POINT('',(-29.7374302292716,-22.6411736303401,14.25));
#458=CARTESIAN_POINT('',(-27.5385785835341,-25.5291951820151,14.25));
#459=CARTESIAN_POINT('',(-23.0855498615524,-31.2612571369867,14.25));
#460=CARTESIAN_POINT('',(-18.4232930638239,-36.8294310077762,14.25));
#461=CARTESIAN_POINT('',(-15.9655097006015,-39.5,14.25));
#462=CARTESIAN_POINT('',(3.46944695195361E-15,0.,0.));
#463=CARTESIAN_POINT('',(3.46944695195361E-15,0.,-14.25));
#464=CARTESIAN_POINT('',(29.7374302292716,-22.64117363034,-14.25));
#465=CARTESIAN_POINT('',(3.46944695195361E-15,0.,14.25));
#466=CARTESIAN_POINT('',(29.7374302292716,-22.64117363034,14.25));
#467=CARTESIAN_POINT('',(0.,-22.64117363034,0.));
#468=CARTESIAN_POINT('',(0.,-22.64117363034,0.));
#469=CARTESIAN_POINT('',(15.9655097006015,-39.5,14.25));
#470=CARTESIAN_POINT('',(18.4175100587992,-36.8357146836004,14.25));
#471=CARTESIAN_POINT('',(23.0844641768178,-31.2630126319225,14.25));
#472=CARTESIAN_POINT('',(27.537814447759,-25.5301988152484,14.25));
#473=CARTESIAN_POINT('',(29.7374302292716,-22.64117363034,14.25));
#474=CARTESIAN_POINT('',(15.9655097006015,-39.5,-14.25));
#475=CARTESIAN_POINT('',(18.4175100587992,-36.8357146836004,-14.25));
#476=CARTESIAN_POINT('',(23.0844641768178,-31.2630126319225,-14.25));
#477=CARTESIAN_POINT('',(27.537814447759,-25.5301988152484,-14.25));
#478=CARTESIAN_POINT('',(29.7374302292716,-22.6411736303401,-14.25));
#479=CARTESIAN_POINT('',(2.08166817117217E-14,-8.67361737988404E-16,14.25));
#480=CARTESIAN_POINT('',(0.,0.,14.25));
#481=CARTESIAN_POINT('',(17.5,0.,14.25));
#482=CARTESIAN_POINT('',(21.4,-39.5,14.25));
#483=CARTESIAN_POINT('',(2.08166817117217E-14,-8.67361737988404E-16,-14.25));
#484=CARTESIAN_POINT('',(0.,0.,-14.25));
#485=CARTESIAN_POINT('',(17.5,0.,-14.25));
#486=CARTESIAN_POINT('',(21.4,-39.5,-14.25));
#487=CARTESIAN_POINT('',(0.,0.,14.25));
#488=CARTESIAN_POINT('',(21.5,-39.5,-21.4));
#489=CARTESIAN_POINT('',(21.5,-39.5,21.4));
#490=CARTESIAN_POINT('',(9.23634126697362,-99.,21.5));
#491=CARTESIAN_POINT('',(9.23634126697362,-127.5,21.5));
#492=CARTESIAN_POINT('',(9.23634126697363,-127.5,21.5));
#493=CARTESIAN_POINT('',(-9.23634126697362,-127.5,21.5));
#494=CARTESIAN_POINT('',(9.23634126697363,-99.,21.5));
#495=CARTESIAN_POINT('',(-9.23634126697362,-99.,21.5));
#496=CARTESIAN_POINT('',(0.,-99.,-1.73472347597681E-15));
#497=CARTESIAN_POINT('',(0.,-127.5,-1.73472347597681E-15));
#498=CARTESIAN_POINT('',(9.23634126697363,-127.5,-21.5));
#499=CARTESIAN_POINT('',(9.23634126697363,-99.,-21.5));
#500=CARTESIAN_POINT('',(-9.23634126697363,-99.,-21.5));
#501=CARTESIAN_POINT('',(-9.23634126697363,-127.5,-21.5));
#502=CARTESIAN_POINT('',(-9.23634126697363,-127.5,-21.5));
#503=CARTESIAN_POINT('',(-9.23634126697363,-99.,-21.5));
#504=CARTESIAN_POINT('',(3.46944695195361E-15,-99.,0.));
#505=CARTESIAN_POINT('',(3.46944695195361E-15,-127.5,0.));
#506=CARTESIAN_POINT('',(25.,-127.5,0.));
#507=CARTESIAN_POINT('',(7.80712334456438E-15,-127.5,0.));
#508=CARTESIAN_POINT('',(18.,-127.5,0.));
#509=CARTESIAN_POINT('',(4.31687996699442E-15,-70.5,0.));
#510=CARTESIAN_POINT('',(4.31687996699442E-15,-70.5,0.));
#511=CARTESIAN_POINT('',(16.9175,-70.5,0.));
#512=CARTESIAN_POINT('',(7.80712334456438E-15,-127.5,0.));
#513=CARTESIAN_POINT('',(7.74083933656053E-15,-126.4175,0.));
#514=CARTESIAN_POINT('',(16.9175,-126.4175,0.));
#515=CARTESIAN_POINT('',(7.74083933656053E-15,-126.4175,0.));
#516=MECHANICAL_DESIGN_GEOMETRIC_PRESENTATION_REPRESENTATION('',(#269),
#517);
#517=(
GEOMETRIC_REPRESENTATION_CONTEXT(3)
GLOBAL_UNCERTAINTY_ASSIGNED_CONTEXT((#518))
GLOBAL_UNIT_ASSIGNED_CONTEXT((#521,#520,#519))
REPRESENTATION_CONTEXT('FJ-M36x2BJ','TOP_LEVEL_ASSEMBLY_PART')
);
#518=UNCERTAINTY_MEASURE_WITH_UNIT(LENGTH_MEASURE(0.005),#521,
'DISTANCE_ACCURACY_VALUE','Maximum Tolerance applied to model');
#519=(
NAMED_UNIT(*)
SI_UNIT($,.STERADIAN.)
SOLID_ANGLE_UNIT()
);
#520=(
NAMED_UNIT(*)
PLANE_ANGLE_UNIT()
SI_UNIT($,.RADIAN.)
);
#521=(
LENGTH_UNIT()
NAMED_UNIT(*)
SI_UNIT(.MILLI.,.METRE.)
);
#522=PRODUCT_DEFINITION_SHAPE('','',#523);
#523=PRODUCT_DEFINITION('','',#525,#524);
#524=DESIGN_CONTEXT('',#531,'design');
#525=PRODUCT_DEFINITION_FORMATION_WITH_SPECIFIED_SOURCE('','',#527,
 .NOT_KNOWN.);
#526=PRODUCT_RELATED_PRODUCT_CATEGORY('','',(#527));
#527=PRODUCT('FJ-M36x2BJ','FJ-M36x2BJ','FJ-M36x2BJ',(#529));
#528=PRODUCT_CATEGORY('','');
#529=MECHANICAL_CONTEXT('',#531,'mechanical');
#530=APPLICATION_PROTOCOL_DEFINITION('international standard',
'config_control_design',2010,#531);
#531=APPLICATION_CONTEXT(
'configuration controlled 3D designs of mechanical parts and assemblie
s');
ENDSEC;
END-ISO-10303-21;
