ISO-10303-21;
HEADER;
/* Generated by software containing ST-Developer
 * from STEP Tools, Inc. (www.steptools.com) 
 */
/* OPTION: using custom renumber hook */

FILE_DESCRIPTION(
/* description */ ('STEP AP203'),
/* implementation_level */ '2;1');

FILE_NAME(
/* name */ 'FJ-M20x1.5BJ',
/* time_stamp */ '2024-05-13T13:47:53+02:00',
/* author */ ('License CC BY-ND 4.0'),
/* organization */ ('CADENAS'),
/* preprocessor_version */ 'ST-DEVELOPER v19.3',
/* originating_system */ 'PARTsolutions',
/* authorisation */ '  ');

FILE_SCHEMA (('CONFIG_CONTROL_DESIGN'));
ENDSEC;

DATA;
#10=PROPERTY_DEFINITION_REPRESENTATION(#14,#12);
#11=PROPERTY_DEFINITION_REPRESENTATION(#15,#13);
#12=REPRESENTATION('',(#16),#513);
#13=REPRESENTATION('',(#17),#513);
#14=PROPERTY_DEFINITION('pmi validation property','',#518);
#15=PROPERTY_DEFINITION('pmi validation property','',#518);
#16=VALUE_REPRESENTATION_ITEM('number of annotations',COUNT_MEASURE(0.));
#17=VALUE_REPRESENTATION_ITEM('number of views',COUNT_MEASURE(0.));
#18=SHAPE_REPRESENTATION_RELATIONSHIP('','',#279,#19);
#19=ADVANCED_BREP_SHAPE_REPRESENTATION('',(#277),#513);
#20=SPHERICAL_SURFACE('',#290,25.);
#21=CONICAL_SURFACE('',#288,21.8053900402081,0.511082383315734);
#22=CONICAL_SURFACE('',#294,21.8053900402081,0.511082383315734);
#23=CONICAL_SURFACE('',#314,9.188,0.785398163397451);
#24=B_SPLINE_CURVE_WITH_KNOTS('',3,(#408,#409,#410,#411,#412,#413,#414,
#415,#416,#417,#418,#419,#420,#421,#422),.UNSPECIFIED.,.F.,.F.,(4,1,1,1,
1,1,1,1,1,1,1,1,4),(7.35980840008019E-18,0.00137694152580877,0.00275388305161753,
0.00413082457742629,0.00550776610323505,0.00826164915485256,0.0110155322064701,
0.0137694152580876,0.0165232983097051,0.0179002398355139,0.0192771813613226,
0.0206541228871314,0.0220310644129402),.UNSPECIFIED.);
#25=B_SPLINE_CURVE_WITH_KNOTS('',3,(#427,#428,#429,#430,#431,#432,#433,
#434,#435,#436,#437,#438,#439,#440,#441),.UNSPECIFIED.,.F.,.F.,(4,1,1,1,
1,1,1,1,1,1,1,1,4),(3.46944695195361E-18,0.00137694152580876,0.00275388305161752,
0.00413082457742628,0.00550776610323504,0.00826164915485256,0.0110155322064701,
0.0137694152580876,0.0165232983097051,0.0179002398355139,0.0192771813613226,
0.0206541228871314,0.0220310644129402),.UNSPECIFIED.);
#26=B_SPLINE_CURVE_WITH_KNOTS('',3,(#448,#449,#450,#451,#452),
 .UNSPECIFIED.,.F.,.F.,(4,1,4),(8.21870565681143E-7,0.0101344083312605,
0.0202679947919552),.UNSPECIFIED.);
#27=B_SPLINE_CURVE_WITH_KNOTS('',3,(#453,#454,#455,#456,#457),
 .UNSPECIFIED.,.F.,.F.,(4,1,4),(8.21870565681143E-7,0.0101344083312605,
0.0202679947919553),.UNSPECIFIED.);
#28=B_SPLINE_CURVE_WITH_KNOTS('',3,(#465,#466,#467,#468,#469),
 .UNSPECIFIED.,.F.,.F.,(4,1,4),(0.0416826765326879,0.0517698163435084,0.0618569561543288),
 .UNSPECIFIED.);
#29=B_SPLINE_CURVE_WITH_KNOTS('',3,(#470,#471,#472,#473,#474),
 .UNSPECIFIED.,.F.,.F.,(4,1,4),(0.0416826765326879,0.0517698163435084,0.0618569561543288),
 .UNSPECIFIED.);
#30=CYLINDRICAL_SURFACE('',#285,12.4);
#31=CYLINDRICAL_SURFACE('',#299,10.);
#32=CYLINDRICAL_SURFACE('',#300,3.4);
#33=CYLINDRICAL_SURFACE('',#301,3.40000000000001);
#34=CYLINDRICAL_SURFACE('',#303,14.4);
#35=CYLINDRICAL_SURFACE('',#306,14.4);
#36=CYLINDRICAL_SURFACE('',#312,9.188);
#37=CIRCLE('',#282,14.4);
#38=CIRCLE('',#283,14.4);
#39=CIRCLE('',#284,12.4);
#40=CIRCLE('',#286,12.4);
#41=CIRCLE('',#287,12.4);
#42=CIRCLE('',#289,21.8053900402081);
#43=CIRCLE('',#291,23.3238075793812);
#44=CIRCLE('',#292,23.3238075793812);
#45=CIRCLE('',#293,21.8053900402081);
#46=CIRCLE('',#296,10.);
#47=CIRCLE('',#298,10.);
#48=CIRCLE('',#304,14.4);
#49=CIRCLE('',#307,14.4);
#50=CIRCLE('',#309,10.);
#51=CIRCLE('',#311,9.188);
#52=CIRCLE('',#313,9.188);
#53=ORIENTED_EDGE('',*,*,#117,.F.);
#54=ORIENTED_EDGE('',*,*,#118,.F.);
#55=ORIENTED_EDGE('',*,*,#119,.F.);
#56=ORIENTED_EDGE('',*,*,#120,.F.);
#57=ORIENTED_EDGE('',*,*,#121,.T.);
#58=ORIENTED_EDGE('',*,*,#121,.F.);
#59=ORIENTED_EDGE('',*,*,#122,.F.);
#60=ORIENTED_EDGE('',*,*,#123,.T.);
#61=ORIENTED_EDGE('',*,*,#124,.F.);
#62=ORIENTED_EDGE('',*,*,#125,.T.);
#63=ORIENTED_EDGE('',*,*,#126,.T.);
#64=ORIENTED_EDGE('',*,*,#127,.T.);
#65=ORIENTED_EDGE('',*,*,#123,.F.);
#66=ORIENTED_EDGE('',*,*,#128,.F.);
#67=ORIENTED_EDGE('',*,*,#129,.F.);
#68=ORIENTED_EDGE('',*,*,#126,.F.);
#69=ORIENTED_EDGE('',*,*,#130,.T.);
#70=ORIENTED_EDGE('',*,*,#131,.F.);
#71=ORIENTED_EDGE('',*,*,#132,.F.);
#72=ORIENTED_EDGE('',*,*,#125,.F.);
#73=ORIENTED_EDGE('',*,*,#133,.T.);
#74=ORIENTED_EDGE('',*,*,#131,.T.);
#75=ORIENTED_EDGE('',*,*,#134,.F.);
#76=ORIENTED_EDGE('',*,*,#128,.T.);
#77=ORIENTED_EDGE('',*,*,#135,.T.);
#78=ORIENTED_EDGE('',*,*,#132,.T.);
#79=ORIENTED_EDGE('',*,*,#130,.F.);
#80=ORIENTED_EDGE('',*,*,#136,.T.);
#81=ORIENTED_EDGE('',*,*,#129,.T.);
#82=ORIENTED_EDGE('',*,*,#133,.F.);
#83=ORIENTED_EDGE('',*,*,#137,.F.);
#84=ORIENTED_EDGE('',*,*,#127,.F.);
#85=ORIENTED_EDGE('',*,*,#134,.T.);
#86=ORIENTED_EDGE('',*,*,#136,.F.);
#87=ORIENTED_EDGE('',*,*,#137,.T.);
#88=ORIENTED_EDGE('',*,*,#124,.T.);
#89=ORIENTED_EDGE('',*,*,#122,.T.);
#90=ORIENTED_EDGE('',*,*,#135,.F.);
#91=ORIENTED_EDGE('',*,*,#138,.F.);
#92=ORIENTED_EDGE('',*,*,#139,.F.);
#93=ORIENTED_EDGE('',*,*,#117,.T.);
#94=ORIENTED_EDGE('',*,*,#140,.T.);
#95=ORIENTED_EDGE('',*,*,#141,.T.);
#96=ORIENTED_EDGE('',*,*,#142,.F.);
#97=ORIENTED_EDGE('',*,*,#118,.T.);
#98=ORIENTED_EDGE('',*,*,#139,.T.);
#99=ORIENTED_EDGE('',*,*,#143,.F.);
#100=ORIENTED_EDGE('',*,*,#144,.F.);
#101=ORIENTED_EDGE('',*,*,#119,.T.);
#102=ORIENTED_EDGE('',*,*,#142,.T.);
#103=ORIENTED_EDGE('',*,*,#145,.F.);
#104=ORIENTED_EDGE('',*,*,#140,.F.);
#105=ORIENTED_EDGE('',*,*,#120,.T.);
#106=ORIENTED_EDGE('',*,*,#144,.T.);
#107=ORIENTED_EDGE('',*,*,#146,.F.);
#108=ORIENTED_EDGE('',*,*,#143,.T.);
#109=ORIENTED_EDGE('',*,*,#141,.F.);
#110=ORIENTED_EDGE('',*,*,#138,.T.);
#111=ORIENTED_EDGE('',*,*,#145,.T.);
#112=ORIENTED_EDGE('',*,*,#147,.T.);
#113=ORIENTED_EDGE('',*,*,#148,.T.);
#114=ORIENTED_EDGE('',*,*,#147,.F.);
#115=ORIENTED_EDGE('',*,*,#146,.T.);
#116=ORIENTED_EDGE('',*,*,#148,.F.);
#117=EDGE_CURVE('',#149,#150,#171,.T.);
#118=EDGE_CURVE('',#151,#149,#37,.T.);
#119=EDGE_CURVE('',#152,#151,#172,.T.);
#120=EDGE_CURVE('',#150,#152,#38,.T.);
#121=EDGE_CURVE('',#153,#153,#39,.T.);
#122=EDGE_CURVE('',#154,#155,#24,.T.);
#123=EDGE_CURVE('',#154,#156,#40,.T.);
#124=EDGE_CURVE('',#157,#156,#25,.T.);
#125=EDGE_CURVE('',#157,#155,#41,.T.);
#126=EDGE_CURVE('',#158,#159,#42,.T.);
#127=EDGE_CURVE('',#159,#156,#26,.T.);
#128=EDGE_CURVE('',#158,#154,#27,.T.);
#129=EDGE_CURVE('',#159,#160,#43,.F.);
#130=EDGE_CURVE('',#158,#161,#44,.F.);
#131=EDGE_CURVE('',#160,#161,#45,.T.);
#132=EDGE_CURVE('',#155,#161,#28,.T.);
#133=EDGE_CURVE('',#157,#160,#29,.T.);
#134=EDGE_CURVE('',#162,#162,#46,.T.);
#135=EDGE_CURVE('',#154,#155,#173,.T.);
#136=EDGE_CURVE('',#163,#163,#47,.T.);
#137=EDGE_CURVE('',#156,#157,#174,.T.);
#138=EDGE_CURVE('',#164,#165,#175,.T.);
#139=EDGE_CURVE('',#149,#164,#176,.T.);
#140=EDGE_CURVE('',#150,#165,#177,.T.);
#141=EDGE_CURVE('',#164,#166,#48,.T.);
#142=EDGE_CURVE('',#151,#166,#178,.T.);
#143=EDGE_CURVE('',#167,#166,#179,.T.);
#144=EDGE_CURVE('',#152,#167,#180,.T.);
#145=EDGE_CURVE('',#165,#167,#49,.T.);
#146=EDGE_CURVE('',#168,#168,#50,.T.);
#147=EDGE_CURVE('',#169,#169,#51,.T.);
#148=EDGE_CURVE('',#170,#170,#52,.T.);
#149=VERTEX_POINT('',#398);
#150=VERTEX_POINT('',#399);
#151=VERTEX_POINT('',#401);
#152=VERTEX_POINT('',#403);
#153=VERTEX_POINT('',#406);
#154=VERTEX_POINT('',#423);
#155=VERTEX_POINT('',#424);
#156=VERTEX_POINT('',#426);
#157=VERTEX_POINT('',#442);
#158=VERTEX_POINT('',#446);
#159=VERTEX_POINT('',#447);
#160=VERTEX_POINT('',#460);
#161=VERTEX_POINT('',#462);
#162=VERTEX_POINT('',#477);
#163=VERTEX_POINT('',#481);
#164=VERTEX_POINT('',#488);
#165=VERTEX_POINT('',#489);
#166=VERTEX_POINT('',#494);
#167=VERTEX_POINT('',#498);
#168=VERTEX_POINT('',#504);
#169=VERTEX_POINT('',#507);
#170=VERTEX_POINT('',#510);
#171=LINE('',#397,#181);
#172=LINE('',#402,#182);
#173=LINE('',#478,#183);
#174=LINE('',#482,#184);
#175=LINE('',#487,#185);
#176=LINE('',#490,#186);
#177=LINE('',#491,#187);
#178=LINE('',#495,#188);
#179=LINE('',#497,#189);
#180=LINE('',#499,#190);
#181=VECTOR('',#319,1000.);
#182=VECTOR('',#322,1000.);
#183=VECTOR('',#351,1000.);
#184=VECTOR('',#356,1000.);
#185=VECTOR('',#365,1000.);
#186=VECTOR('',#366,1000.);
#187=VECTOR('',#367,1000.);
#188=VECTOR('',#372,1000.);
#189=VECTOR('',#375,1000.);
#190=VECTOR('',#376,1000.);
#191=EDGE_LOOP('',(#53,#54,#55,#56));
#192=EDGE_LOOP('',(#57));
#193=EDGE_LOOP('',(#58));
#194=EDGE_LOOP('',(#59,#60,#61,#62));
#195=EDGE_LOOP('',(#63,#64,#65,#66));
#196=EDGE_LOOP('',(#67,#68,#69,#70));
#197=EDGE_LOOP('',(#71,#72,#73,#74));
#198=EDGE_LOOP('',(#75));
#199=EDGE_LOOP('',(#76,#77,#78,#79));
#200=EDGE_LOOP('',(#80));
#201=EDGE_LOOP('',(#81,#82,#83,#84));
#202=EDGE_LOOP('',(#85));
#203=EDGE_LOOP('',(#86));
#204=EDGE_LOOP('',(#87,#88));
#205=EDGE_LOOP('',(#89,#90));
#206=EDGE_LOOP('',(#91,#92,#93,#94));
#207=EDGE_LOOP('',(#95,#96,#97,#98));
#208=EDGE_LOOP('',(#99,#100,#101,#102));
#209=EDGE_LOOP('',(#103,#104,#105,#106));
#210=EDGE_LOOP('',(#107));
#211=EDGE_LOOP('',(#108,#109,#110,#111));
#212=EDGE_LOOP('',(#112));
#213=EDGE_LOOP('',(#113));
#214=EDGE_LOOP('',(#114));
#215=EDGE_LOOP('',(#115));
#216=EDGE_LOOP('',(#116));
#217=FACE_BOUND('',#191,.T.);
#218=FACE_BOUND('',#192,.T.);
#219=FACE_BOUND('',#193,.T.);
#220=FACE_BOUND('',#194,.T.);
#221=FACE_BOUND('',#195,.T.);
#222=FACE_BOUND('',#196,.T.);
#223=FACE_BOUND('',#197,.T.);
#224=FACE_BOUND('',#198,.T.);
#225=FACE_BOUND('',#199,.T.);
#226=FACE_BOUND('',#200,.T.);
#227=FACE_BOUND('',#201,.T.);
#228=FACE_BOUND('',#202,.T.);
#229=FACE_BOUND('',#203,.T.);
#230=FACE_BOUND('',#204,.T.);
#231=FACE_BOUND('',#205,.T.);
#232=FACE_BOUND('',#206,.T.);
#233=FACE_BOUND('',#207,.T.);
#234=FACE_BOUND('',#208,.T.);
#235=FACE_BOUND('',#209,.T.);
#236=FACE_BOUND('',#210,.T.);
#237=FACE_BOUND('',#211,.T.);
#238=FACE_BOUND('',#212,.T.);
#239=FACE_BOUND('',#213,.T.);
#240=FACE_BOUND('',#214,.T.);
#241=FACE_BOUND('',#215,.T.);
#242=FACE_BOUND('',#216,.T.);
#243=PLANE('',#281);
#244=PLANE('',#295);
#245=PLANE('',#297);
#246=PLANE('',#302);
#247=PLANE('',#305);
#248=PLANE('',#308);
#249=PLANE('',#310);
#250=ADVANCED_FACE('',(#217,#218),#243,.F.);
#251=ADVANCED_FACE('',(#219,#220),#30,.T.);
#252=ADVANCED_FACE('',(#221),#21,.T.);
#253=ADVANCED_FACE('',(#222),#20,.T.);
#254=ADVANCED_FACE('',(#223),#22,.T.);
#255=ADVANCED_FACE('',(#224,#225),#244,.T.);
#256=ADVANCED_FACE('',(#226,#227),#245,.F.);
#257=ADVANCED_FACE('',(#228,#229),#31,.F.);
#258=ADVANCED_FACE('',(#230),#32,.F.);
#259=ADVANCED_FACE('',(#231),#33,.F.);
#260=ADVANCED_FACE('',(#232),#246,.T.);
#261=ADVANCED_FACE('',(#233),#34,.T.);
#262=ADVANCED_FACE('',(#234),#247,.T.);
#263=ADVANCED_FACE('',(#235),#35,.T.);
#264=ADVANCED_FACE('',(#236,#237),#248,.F.);
#265=ADVANCED_FACE('',(#238),#249,.T.);
#266=ADVANCED_FACE('',(#239,#240),#36,.F.);
#267=ADVANCED_FACE('',(#241,#242),#23,.F.);
#268=CLOSED_SHELL('',(#250,#251,#252,#253,#254,#255,#256,#257,#258,#259,
#260,#261,#262,#263,#264,#265,#266,#267));
#269=STYLED_ITEM('',(#270),#277);
#270=PRESENTATION_STYLE_ASSIGNMENT((#271));
#271=SURFACE_STYLE_USAGE(.BOTH.,#272);
#272=SURFACE_SIDE_STYLE('',(#273));
#273=SURFACE_STYLE_FILL_AREA(#274);
#274=FILL_AREA_STYLE('',(#275));
#275=FILL_AREA_STYLE_COLOUR('',#276);
#276=COLOUR_RGB('',0.689999997615814,0.689999997615814,0.689999997615814);
#277=MANIFOLD_SOLID_BREP('FJ-M20x1.5BJ',#268);
#278=SHAPE_DEFINITION_REPRESENTATION(#518,#279);
#279=SHAPE_REPRESENTATION('FJ-M20x1.5BJ',(#280),#513);
#280=AXIS2_PLACEMENT_3D('',#395,#315,#316);
#281=AXIS2_PLACEMENT_3D('',#396,#317,#318);
#282=AXIS2_PLACEMENT_3D('',#400,#320,#321);
#283=AXIS2_PLACEMENT_3D('',#404,#323,#324);
#284=AXIS2_PLACEMENT_3D('',#405,#325,#326);
#285=AXIS2_PLACEMENT_3D('',#407,#327,#328);
#286=AXIS2_PLACEMENT_3D('',#425,#329,#330);
#287=AXIS2_PLACEMENT_3D('',#443,#331,#332);
#288=AXIS2_PLACEMENT_3D('',#444,#333,#334);
#289=AXIS2_PLACEMENT_3D('',#445,#335,#336);
#290=AXIS2_PLACEMENT_3D('',#458,#337,#338);
#291=AXIS2_PLACEMENT_3D('',#459,#339,#340);
#292=AXIS2_PLACEMENT_3D('',#461,#341,#342);
#293=AXIS2_PLACEMENT_3D('',#463,#343,#344);
#294=AXIS2_PLACEMENT_3D('',#464,#345,#346);
#295=AXIS2_PLACEMENT_3D('',#475,#347,#348);
#296=AXIS2_PLACEMENT_3D('',#476,#349,#350);
#297=AXIS2_PLACEMENT_3D('',#479,#352,#353);
#298=AXIS2_PLACEMENT_3D('',#480,#354,#355);
#299=AXIS2_PLACEMENT_3D('',#483,#357,#358);
#300=AXIS2_PLACEMENT_3D('',#484,#359,#360);
#301=AXIS2_PLACEMENT_3D('',#485,#361,#362);
#302=AXIS2_PLACEMENT_3D('',#486,#363,#364);
#303=AXIS2_PLACEMENT_3D('',#492,#368,#369);
#304=AXIS2_PLACEMENT_3D('',#493,#370,#371);
#305=AXIS2_PLACEMENT_3D('',#496,#373,#374);
#306=AXIS2_PLACEMENT_3D('',#500,#377,#378);
#307=AXIS2_PLACEMENT_3D('',#501,#379,#380);
#308=AXIS2_PLACEMENT_3D('',#502,#381,#382);
#309=AXIS2_PLACEMENT_3D('',#503,#383,#384);
#310=AXIS2_PLACEMENT_3D('',#505,#385,#386);
#311=AXIS2_PLACEMENT_3D('',#506,#387,#388);
#312=AXIS2_PLACEMENT_3D('',#508,#389,#390);
#313=AXIS2_PLACEMENT_3D('',#509,#391,#392);
#314=AXIS2_PLACEMENT_3D('',#511,#393,#394);
#315=DIRECTION('',(0.,0.,1.));
#316=DIRECTION('',(1.,0.,0.));
#317=DIRECTION('',(1.20686664248E-16,-1.,0.));
#318=DIRECTION('',(1.,1.20686664248E-16,0.));
#319=DIRECTION('',(-1.,0.,0.));
#320=DIRECTION('',(0.,-1.,0.));
#321=DIRECTION('',(1.,0.,0.));
#322=DIRECTION('',(1.,0.,0.));
#323=DIRECTION('',(0.,-1.,0.));
#324=DIRECTION('',(1.,0.,0.));
#325=DIRECTION('',(1.20686664248E-16,-1.,0.));
#326=DIRECTION('',(1.,1.20686664248E-16,0.));
#327=DIRECTION('',(1.20686664248E-16,-1.,0.));
#328=DIRECTION('',(1.,1.20686664248E-16,0.));
#329=DIRECTION('',(0.,-1.,0.));
#330=DIRECTION('',(0.,0.,-1.));
#331=DIRECTION('',(0.,-1.,0.));
#332=DIRECTION('',(0.,0.,-1.));
#333=DIRECTION('',(0.,1.,0.));
#334=DIRECTION('',(0.,0.,1.));
#335=DIRECTION('',(0.,-1.,0.));
#336=DIRECTION('',(0.,0.,-1.));
#337=DIRECTION('',(0.,-1.,0.));
#338=DIRECTION('',(1.,0.,0.));
#339=DIRECTION('',(0.,0.,1.));
#340=DIRECTION('',(1.,0.,0.));
#341=DIRECTION('',(0.,0.,1.));
#342=DIRECTION('',(1.,0.,0.));
#343=DIRECTION('',(0.,-1.,0.));
#344=DIRECTION('',(0.,0.,-1.));
#345=DIRECTION('',(0.,1.,0.));
#346=DIRECTION('',(0.,0.,1.));
#347=DIRECTION('',(0.,0.,1.));
#348=DIRECTION('',(1.,0.,0.));
#349=DIRECTION('',(0.,0.,1.));
#350=DIRECTION('',(1.,0.,0.));
#351=DIRECTION('',(1.,0.,0.));
#352=DIRECTION('',(0.,0.,1.));
#353=DIRECTION('',(1.,0.,0.));
#354=DIRECTION('',(0.,0.,1.));
#355=DIRECTION('',(1.,0.,0.));
#356=DIRECTION('',(1.,0.,0.));
#357=DIRECTION('',(0.,0.,-1.));
#358=DIRECTION('',(-1.,0.,0.));
#359=DIRECTION('',(-1.,0.,0.));
#360=DIRECTION('',(0.,0.,1.));
#361=DIRECTION('',(-1.,0.,0.));
#362=DIRECTION('',(0.,0.,1.));
#363=DIRECTION('',(0.,0.,1.));
#364=DIRECTION('',(1.,0.,0.));
#365=DIRECTION('',(-1.,0.,0.));
#366=DIRECTION('',(0.,-1.,0.));
#367=DIRECTION('',(0.,-1.,0.));
#368=DIRECTION('',(0.,-1.,0.));
#369=DIRECTION('',(0.,0.,-1.));
#370=DIRECTION('',(-1.20686664248E-16,1.,0.));
#371=DIRECTION('',(-1.,-1.20686664248E-16,0.));
#372=DIRECTION('',(0.,-1.,0.));
#373=DIRECTION('',(0.,0.,-1.));
#374=DIRECTION('',(-1.,0.,0.));
#375=DIRECTION('',(1.,0.,0.));
#376=DIRECTION('',(0.,-1.,0.));
#377=DIRECTION('',(0.,-1.,0.));
#378=DIRECTION('',(0.,0.,-1.));
#379=DIRECTION('',(0.,-1.,0.));
#380=DIRECTION('',(1.,0.,0.));
#381=DIRECTION('',(-1.20686664248E-16,1.,0.));
#382=DIRECTION('',(-1.,-1.20686664248E-16,0.));
#383=DIRECTION('',(6.12323399573677E-17,-1.,0.));
#384=DIRECTION('',(1.,6.12323399573677E-17,0.));
#385=DIRECTION('',(6.12323399573677E-17,-1.,0.));
#386=DIRECTION('',(1.,6.12323399573677E-17,0.));
#387=DIRECTION('',(6.12323399573677E-17,-1.,0.));
#388=DIRECTION('',(1.,6.12323399573677E-17,0.));
#389=DIRECTION('',(6.12323399573677E-17,-1.,0.));
#390=DIRECTION('',(1.,6.12323399573677E-17,0.));
#391=DIRECTION('',(6.12323399573677E-17,-1.,0.));
#392=DIRECTION('',(1.,6.12323399573677E-17,0.));
#393=DIRECTION('',(6.12323399573677E-17,-1.,0.));
#394=DIRECTION('',(1.,6.12323399573677E-17,0.));
#395=CARTESIAN_POINT('',(0.,0.,0.));
#396=CARTESIAN_POINT('',(12.4,-59.,0.));
#397=CARTESIAN_POINT('',(7.149125820686,-59.,12.5));
#398=CARTESIAN_POINT('',(7.149125820686,-59.,12.5));
#399=CARTESIAN_POINT('',(-7.14912582068611,-59.,12.5));
#400=CARTESIAN_POINT('',(-4.75810120249504E-14,-59.,-1.73472347597681E-15));
#401=CARTESIAN_POINT('',(7.149125820686,-59.,-12.5));
#402=CARTESIAN_POINT('',(-7.1491258206861,-59.,-12.5));
#403=CARTESIAN_POINT('',(-7.1491258206861,-59.,-12.5));
#404=CARTESIAN_POINT('',(-5.27851824528808E-14,-59.,8.67361737988404E-16));
#405=CARTESIAN_POINT('',(-5.3222818933368E-14,-59.,0.));
#406=CARTESIAN_POINT('',(12.4,-59.,0.));
#407=CARTESIAN_POINT('',(-5.1050458976904E-14,-77.0000000000001,0.));
#408=CARTESIAN_POINT('',(-8.52994724485458,-29.,8.99999999999997));
#409=CARTESIAN_POINT('',(-8.52994724485458,-29.4667453467011,8.99999999999997));
#410=CARTESIAN_POINT('',(-8.32342446477762,-30.3749256516093,9.20154223310856));
#411=CARTESIAN_POINT('',(-7.53718656712631,-31.3494133626607,9.87034777192078));
#412=CARTESIAN_POINT('',(-6.49364358549963,-31.9157877933392,10.5913068063397));
#413=CARTESIAN_POINT('',(-4.90856505610005,-32.3123771166584,11.4508039734935));
#414=CARTESIAN_POINT('',(-2.72729853820518,-32.4078098436778,12.2003498770479));
#415=CARTESIAN_POINT('',(-0.00188745779744387,-32.3961138840309,12.5000866252442));
#416=CARTESIAN_POINT('',(2.73385346319867,-32.4077346201986,12.1993036153235));
#417=CARTESIAN_POINT('',(4.91161759447043,-32.3122050642864,11.4494866869473));
#418=CARTESIAN_POINT('',(6.4984450965275,-31.9140718765203,10.5884078792331));
#419=CARTESIAN_POINT('',(7.54020433903125,-31.3468438240436,9.86792362628196));
#420=CARTESIAN_POINT('',(8.32443962079098,-30.3719053554387,9.20056372535874));
#421=CARTESIAN_POINT('',(8.52994724485448,-29.4661594913554,8.99999999999997));
#422=CARTESIAN_POINT('',(8.52994724485448,-29.,8.99999999999997));
#423=CARTESIAN_POINT('',(-8.52994724485455,-29.,8.99999999999997));
#424=CARTESIAN_POINT('',(8.52994724485444,-29.,9.));
#425=CARTESIAN_POINT('',(0.,-29.,0.));
#426=CARTESIAN_POINT('',(-8.52994724485458,-29.,-8.99999999999997));
#427=CARTESIAN_POINT('',(8.52994724485447,-29.,-8.99999999999997));
#428=CARTESIAN_POINT('',(8.52994724485447,-29.4667453467011,-8.99999999999997));
#429=CARTESIAN_POINT('',(8.32342446477752,-30.3749256516093,-9.20154223310855));
#430=CARTESIAN_POINT('',(7.53718656712619,-31.3494133626607,-9.87034777192078));
#431=CARTESIAN_POINT('',(6.49364358549952,-31.9157877933392,-10.5913068063397));
#432=CARTESIAN_POINT('',(4.90856505609995,-32.3123771166584,-11.4508039734935));
#433=CARTESIAN_POINT('',(2.72729853820507,-32.4078098436778,-12.2003498770479));
#434=CARTESIAN_POINT('',(0.00188745779734008,-32.3961138840309,-12.5000866252442));
#435=CARTESIAN_POINT('',(-2.73385346319879,-32.4077346201986,-12.1993036153235));
#436=CARTESIAN_POINT('',(-4.91161759447053,-32.3122050642864,-11.4494866869474));
#437=CARTESIAN_POINT('',(-6.49844509652762,-31.9140718765203,-10.5884078792331));
#438=CARTESIAN_POINT('',(-7.54020433903136,-31.3468438240436,-9.86792362628196));
#439=CARTESIAN_POINT('',(-8.3244396207911,-30.3719053554386,-9.20056372535874));
#440=CARTESIAN_POINT('',(-8.52994724485459,-29.4661594913554,-8.99999999999997));
#441=CARTESIAN_POINT('',(-8.52994724485459,-29.,-8.99999999999997));
#442=CARTESIAN_POINT('',(8.52994724485447,-29.,-8.99999999999997));
#443=CARTESIAN_POINT('',(0.,-29.,0.));
#444=CARTESIAN_POINT('',(0.,-12.2280401207386,0.));
#445=CARTESIAN_POINT('',(0.,-12.2280401207386,0.));
#446=CARTESIAN_POINT('',(-19.8613955905825,-12.2280401207386,9.));
#447=CARTESIAN_POINT('',(-19.8613955905825,-12.2280401207386,-9.));
#448=CARTESIAN_POINT('',(-19.8613955905824,-12.2280401207386,-9.));
#449=CARTESIAN_POINT('',(-18.0901311606401,-15.1050165774112,-9.));
#450=CARTESIAN_POINT('',(-14.4891394474064,-20.8189554280404,-9.00000000000001));
#451=CARTESIAN_POINT('',(-10.655338528583,-26.3928227390528,-9.));
#452=CARTESIAN_POINT('',(-8.5299472448545,-28.9999999999999,-9.));
#453=CARTESIAN_POINT('',(-19.8613955905824,-12.2280401207386,9.));
#454=CARTESIAN_POINT('',(-18.0901311606401,-15.1050165774112,9.));
#455=CARTESIAN_POINT('',(-14.4891394474064,-20.8189554280404,9.00000000000001));
#456=CARTESIAN_POINT('',(-10.655338528583,-26.3928227390528,9.));
#457=CARTESIAN_POINT('',(-8.52994724485449,-28.9999999999999,9.));
#458=CARTESIAN_POINT('',(-2.25514051876985E-14,-1.04083408558608E-14,0.));
#459=CARTESIAN_POINT('',(-2.25514051876985E-14,-1.04083408558608E-14,-9.));
#460=CARTESIAN_POINT('',(19.8613955905824,-12.2280401207386,-9.));
#461=CARTESIAN_POINT('',(-2.25514051876985E-14,-1.04083408558608E-14,9.));
#462=CARTESIAN_POINT('',(19.8613955905824,-12.2280401207386,9.));
#463=CARTESIAN_POINT('',(0.,-12.2280401207386,0.));
#464=CARTESIAN_POINT('',(0.,-12.2280401207386,0.));
#465=CARTESIAN_POINT('',(8.52994724485444,-29.,9.));
#466=CARTESIAN_POINT('',(10.6699864654107,-26.3748543921845,9.));
#467=CARTESIAN_POINT('',(14.4910958782675,-20.8139514316285,9.));
#468=CARTESIAN_POINT('',(18.0911128729811,-15.1034220310268,9.));
#469=CARTESIAN_POINT('',(19.8613955905824,-12.2280401207386,9.));
#470=CARTESIAN_POINT('',(8.52994724485445,-29.,-9.));
#471=CARTESIAN_POINT('',(10.6699864654107,-26.3748543921845,-9.));
#472=CARTESIAN_POINT('',(14.4910958782675,-20.8139514316286,-9.));
#473=CARTESIAN_POINT('',(18.0911128729812,-15.1034220310268,-9.));
#474=CARTESIAN_POINT('',(19.8613955905824,-12.2280401207386,-9.));
#475=CARTESIAN_POINT('',(-1.38777878078145E-14,-5.908901840046E-15,9.));
#476=CARTESIAN_POINT('',(0.,0.,9.));
#477=CARTESIAN_POINT('',(10.,0.,9.));
#478=CARTESIAN_POINT('',(12.4,-29.,9.));
#479=CARTESIAN_POINT('',(-1.38777878078145E-14,-5.908901840046E-15,-9.));
#480=CARTESIAN_POINT('',(0.,0.,-9.));
#481=CARTESIAN_POINT('',(10.,0.,-9.));
#482=CARTESIAN_POINT('',(12.4,-29.,-9.));
#483=CARTESIAN_POINT('',(0.,0.,9.));
#484=CARTESIAN_POINT('',(12.5,-29.,-12.4));
#485=CARTESIAN_POINT('',(12.5,-29.,12.4));
#486=CARTESIAN_POINT('',(7.149125820686,-59.,12.5));
#487=CARTESIAN_POINT('',(7.149125820686,-77.0000000000001,12.5));
#488=CARTESIAN_POINT('',(7.149125820686,-77.0000000000001,12.5));
#489=CARTESIAN_POINT('',(-7.14912582068611,-77.0000000000001,12.5));
#490=CARTESIAN_POINT('',(7.149125820686,-59.,12.5));
#491=CARTESIAN_POINT('',(-7.14912582068611,-59.,12.5));
#492=CARTESIAN_POINT('',(-4.75810120249504E-14,-59.,-1.73472347597681E-15));
#493=CARTESIAN_POINT('',(-4.75810120249504E-14,-77.,-1.73472347597681E-15));
#494=CARTESIAN_POINT('',(7.149125820686,-77.0000000000001,-12.5));
#495=CARTESIAN_POINT('',(7.149125820686,-59.,-12.5));
#496=CARTESIAN_POINT('',(-7.1491258206861,-59.,-12.5));
#497=CARTESIAN_POINT('',(-7.1491258206861,-77.0000000000001,-12.5));
#498=CARTESIAN_POINT('',(-7.1491258206861,-77.,-12.5));
#499=CARTESIAN_POINT('',(-7.1491258206861,-59.,-12.5));
#500=CARTESIAN_POINT('',(-5.27851824528808E-14,-59.,8.67361737988404E-16));
#501=CARTESIAN_POINT('',(-5.27851824528808E-14,-77.0000000000001,8.67361737988404E-16));
#502=CARTESIAN_POINT('',(15.,-77.,0.));
#503=CARTESIAN_POINT('',(4.71489017671731E-15,-77.,0.));
#504=CARTESIAN_POINT('',(10.,-77.,0.));
#505=CARTESIAN_POINT('',(2.63299061816681E-15,-43.,0.));
#506=CARTESIAN_POINT('',(2.63299061816681E-15,-43.,0.));
#507=CARTESIAN_POINT('',(9.188,-43.,0.));
#508=CARTESIAN_POINT('',(4.71489017671731E-15,-77.,0.));
#509=CARTESIAN_POINT('',(4.66516951667193E-15,-76.188,0.));
#510=CARTESIAN_POINT('',(9.18800000000001,-76.188,0.));
#511=CARTESIAN_POINT('',(4.66516951667193E-15,-76.188,0.));
#512=MECHANICAL_DESIGN_GEOMETRIC_PRESENTATION_REPRESENTATION('',(#269),
#513);
#513=(
GEOMETRIC_REPRESENTATION_CONTEXT(3)
GLOBAL_UNCERTAINTY_ASSIGNED_CONTEXT((#514))
GLOBAL_UNIT_ASSIGNED_CONTEXT((#517,#516,#515))
REPRESENTATION_CONTEXT('FJ-M20x1.5BJ','TOP_LEVEL_ASSEMBLY_PART')
);
#514=UNCERTAINTY_MEASURE_WITH_UNIT(LENGTH_MEASURE(0.005),#517,
'DISTANCE_ACCURACY_VALUE','Maximum Tolerance applied to model');
#515=(
NAMED_UNIT(*)
SI_UNIT($,.STERADIAN.)
SOLID_ANGLE_UNIT()
);
#516=(
NAMED_UNIT(*)
PLANE_ANGLE_UNIT()
SI_UNIT($,.RADIAN.)
);
#517=(
LENGTH_UNIT()
NAMED_UNIT(*)
SI_UNIT(.MILLI.,.METRE.)
);
#518=PRODUCT_DEFINITION_SHAPE('','',#519);
#519=PRODUCT_DEFINITION('','',#521,#520);
#520=DESIGN_CONTEXT('',#527,'design');
#521=PRODUCT_DEFINITION_FORMATION_WITH_SPECIFIED_SOURCE('','',#523,
 .NOT_KNOWN.);
#522=PRODUCT_RELATED_PRODUCT_CATEGORY('','',(#523));
#523=PRODUCT('FJ-M20x1.5BJ','FJ-M20x1.5BJ','FJ-M20x1.5BJ',(#525));
#524=PRODUCT_CATEGORY('','');
#525=MECHANICAL_CONTEXT('',#527,'mechanical');
#526=APPLICATION_PROTOCOL_DEFINITION('international standard',
'config_control_design',2010,#527);
#527=APPLICATION_CONTEXT(
'configuration controlled 3D designs of mechanical parts and assemblie
s');
ENDSEC;
END-ISO-10303-21;
