ISO-10303-21;
HEADER;
/* Generated by software containing ST-Developer
 * from STEP Tools, Inc. (www.steptools.com) 
 */
/* OPTION: using custom renumber hook */

FILE_DESCRIPTION(
/* description */ ('STEP AP203'),
/* implementation_level */ '2;1');

FILE_NAME(
/* name */ 'FJ-M10x1.25BJ',
/* time_stamp */ '2024-05-13T13:47:29+02:00',
/* author */ ('License CC BY-ND 4.0'),
/* organization */ ('CADENAS'),
/* preprocessor_version */ 'ST-DEVELOPER v19.3',
/* originating_system */ 'PARTsolutions',
/* authorisation */ '  ');

FILE_SCHEMA (('CONFIG_CONTROL_DESIGN'));
ENDSEC;

DATA;
#10=PROPERTY_DEFINITION_REPRESENTATION(#14,#12);
#11=PROPERTY_DEFINITION_REPRESENTATION(#15,#13);
#12=REPRESENTATION('',(#16),#509);
#13=REPRESENTATION('',(#17),#509);
#14=PROPERTY_DEFINITION('pmi validation property','',#514);
#15=PROPERTY_DEFINITION('pmi validation property','',#514);
#16=VALUE_REPRESENTATION_ITEM('number of annotations',COUNT_MEASURE(0.));
#17=VALUE_REPRESENTATION_ITEM('number of views',COUNT_MEASURE(0.));
#18=SHAPE_REPRESENTATION_RELATIONSHIP('','',#279,#19);
#19=ADVANCED_BREP_SHAPE_REPRESENTATION('',(#277),#509);
#20=SPHERICAL_SURFACE('',#296,14.);
#21=CONICAL_SURFACE('',#294,12.1078665856591,0.52594957294055);
#22=CONICAL_SURFACE('',#300,12.1078665856591,0.52594957294055);
#23=CONICAL_SURFACE('',#314,4.3235,0.785398163397451);
#24=B_SPLINE_CURVE_WITH_KNOTS('',3,(#425,#426,#427,#428,#429,#430,#431,
#432,#433,#434,#435,#436,#437),.UNSPECIFIED.,.F.,.F.,(4,1,1,1,1,1,1,1,1,
1,4),(7.04648007012958E-18,0.000704352341784038,0.00140870468356807,0.00281740936713613,
0.00422611405070419,0.00563481873427225,0.00704352341784032,0.00845222810140838,
0.00986093278497644,0.0105652851267605,0.0112696374685445),
 .UNSPECIFIED.);
#25=B_SPLINE_CURVE_WITH_KNOTS('',3,(#442,#443,#444,#445,#446,#447,#448,
#449,#450,#451,#452,#453,#454),.UNSPECIFIED.,.F.,.F.,(4,1,1,1,1,1,1,1,1,
1,4),(0.,0.000704352341784032,0.00140870468356806,0.00281740936713613,0.00422611405070419,
0.00563481873427225,0.00704352341784032,0.00845222810140838,0.00986093278497644,
0.0105652851267605,0.0112696374685445),.UNSPECIFIED.);
#26=B_SPLINE_CURVE_WITH_KNOTS('',3,(#461,#462,#463,#464,#465),
 .UNSPECIFIED.,.F.,.F.,(4,1,4),(8.32556388494059E-7,0.00552670387323257,
0.0110525751900766),.UNSPECIFIED.);
#27=B_SPLINE_CURVE_WITH_KNOTS('',3,(#466,#467,#468,#469,#470),
 .UNSPECIFIED.,.F.,.F.,(4,1,4),(8.32556388494059E-7,0.00552670387323256,
0.0110525751900766),.UNSPECIFIED.);
#28=B_SPLINE_CURVE_WITH_KNOTS('',3,(#478,#479,#480,#481,#482),
 .UNSPECIFIED.,.F.,.F.,(4,1,4),(0.0219723049737955,0.0275318433718625,0.0330913817699296),
 .UNSPECIFIED.);
#29=B_SPLINE_CURVE_WITH_KNOTS('',3,(#483,#484,#485,#486,#487),
 .UNSPECIFIED.,.F.,.F.,(4,1,4),(0.0219723049737955,0.0275318433718626,0.0330913817699296),
 .UNSPECIFIED.);
#30=CYLINDRICAL_SURFACE('',#285,8.50000000000006);
#31=CYLINDRICAL_SURFACE('',#287,8.50000000000006);
#32=CYLINDRICAL_SURFACE('',#291,6.90000000000009);
#33=CYLINDRICAL_SURFACE('',#305,5.);
#34=CYLINDRICAL_SURFACE('',#306,1.65);
#35=CYLINDRICAL_SURFACE('',#307,1.65);
#36=CYLINDRICAL_SURFACE('',#312,4.3235);
#37=LINE('',#400,#47);
#38=LINE('',#404,#48);
#39=LINE('',#408,#49);
#40=LINE('',#410,#50);
#41=LINE('',#414,#51);
#42=LINE('',#416,#52);
#43=LINE('',#422,#53);
#44=LINE('',#423,#54);
#45=LINE('',#491,#55);
#46=LINE('',#495,#56);
#47=VECTOR('',#321,1000.);
#48=VECTOR('',#324,1000.);
#49=VECTOR('',#329,1000.);
#50=VECTOR('',#330,1000.);
#51=VECTOR('',#335,1000.);
#52=VECTOR('',#336,1000.);
#53=VECTOR('',#343,1000.);
#54=VECTOR('',#344,1000.);
#55=VECTOR('',#369,1000.);
#56=VECTOR('',#374,1000.);
#57=ORIENTED_EDGE('',*,*,#121,.F.);
#58=ORIENTED_EDGE('',*,*,#122,.F.);
#59=ORIENTED_EDGE('',*,*,#123,.F.);
#60=ORIENTED_EDGE('',*,*,#124,.F.);
#61=ORIENTED_EDGE('',*,*,#125,.T.);
#62=ORIENTED_EDGE('',*,*,#126,.F.);
#63=ORIENTED_EDGE('',*,*,#123,.T.);
#64=ORIENTED_EDGE('',*,*,#127,.F.);
#65=ORIENTED_EDGE('',*,*,#128,.F.);
#66=ORIENTED_EDGE('',*,*,#129,.F.);
#67=ORIENTED_EDGE('',*,*,#121,.T.);
#68=ORIENTED_EDGE('',*,*,#130,.F.);
#69=ORIENTED_EDGE('',*,*,#131,.F.);
#70=ORIENTED_EDGE('',*,*,#132,.F.);
#71=ORIENTED_EDGE('',*,*,#133,.F.);
#72=ORIENTED_EDGE('',*,*,#131,.T.);
#73=ORIENTED_EDGE('',*,*,#134,.F.);
#74=ORIENTED_EDGE('',*,*,#128,.T.);
#75=ORIENTED_EDGE('',*,*,#125,.F.);
#76=ORIENTED_EDGE('',*,*,#135,.F.);
#77=ORIENTED_EDGE('',*,*,#136,.T.);
#78=ORIENTED_EDGE('',*,*,#137,.F.);
#79=ORIENTED_EDGE('',*,*,#138,.T.);
#80=ORIENTED_EDGE('',*,*,#139,.T.);
#81=ORIENTED_EDGE('',*,*,#140,.T.);
#82=ORIENTED_EDGE('',*,*,#136,.F.);
#83=ORIENTED_EDGE('',*,*,#141,.F.);
#84=ORIENTED_EDGE('',*,*,#142,.F.);
#85=ORIENTED_EDGE('',*,*,#139,.F.);
#86=ORIENTED_EDGE('',*,*,#143,.T.);
#87=ORIENTED_EDGE('',*,*,#144,.F.);
#88=ORIENTED_EDGE('',*,*,#145,.F.);
#89=ORIENTED_EDGE('',*,*,#138,.F.);
#90=ORIENTED_EDGE('',*,*,#146,.T.);
#91=ORIENTED_EDGE('',*,*,#144,.T.);
#92=ORIENTED_EDGE('',*,*,#147,.F.);
#93=ORIENTED_EDGE('',*,*,#141,.T.);
#94=ORIENTED_EDGE('',*,*,#148,.T.);
#95=ORIENTED_EDGE('',*,*,#145,.T.);
#96=ORIENTED_EDGE('',*,*,#143,.F.);
#97=ORIENTED_EDGE('',*,*,#149,.T.);
#98=ORIENTED_EDGE('',*,*,#142,.T.);
#99=ORIENTED_EDGE('',*,*,#146,.F.);
#100=ORIENTED_EDGE('',*,*,#150,.F.);
#101=ORIENTED_EDGE('',*,*,#140,.F.);
#102=ORIENTED_EDGE('',*,*,#147,.T.);
#103=ORIENTED_EDGE('',*,*,#149,.F.);
#104=ORIENTED_EDGE('',*,*,#150,.T.);
#105=ORIENTED_EDGE('',*,*,#137,.T.);
#106=ORIENTED_EDGE('',*,*,#135,.T.);
#107=ORIENTED_EDGE('',*,*,#148,.F.);
#108=ORIENTED_EDGE('',*,*,#129,.T.);
#109=ORIENTED_EDGE('',*,*,#133,.T.);
#110=ORIENTED_EDGE('',*,*,#127,.T.);
#111=ORIENTED_EDGE('',*,*,#122,.T.);
#112=ORIENTED_EDGE('',*,*,#126,.T.);
#113=ORIENTED_EDGE('',*,*,#134,.T.);
#114=ORIENTED_EDGE('',*,*,#130,.T.);
#115=ORIENTED_EDGE('',*,*,#124,.T.);
#116=ORIENTED_EDGE('',*,*,#151,.T.);
#117=ORIENTED_EDGE('',*,*,#152,.T.);
#118=ORIENTED_EDGE('',*,*,#151,.F.);
#119=ORIENTED_EDGE('',*,*,#132,.T.);
#120=ORIENTED_EDGE('',*,*,#152,.F.);
#121=EDGE_CURVE('',#153,#154,#175,.T.);
#122=EDGE_CURVE('',#155,#153,#37,.T.);
#123=EDGE_CURVE('',#156,#155,#176,.T.);
#124=EDGE_CURVE('',#154,#156,#38,.T.);
#125=EDGE_CURVE('',#157,#157,#177,.T.);
#126=EDGE_CURVE('',#156,#158,#39,.T.);
#127=EDGE_CURVE('',#159,#155,#40,.F.);
#128=EDGE_CURVE('',#158,#159,#178,.T.);
#129=EDGE_CURVE('',#153,#160,#41,.T.);
#130=EDGE_CURVE('',#161,#154,#42,.F.);
#131=EDGE_CURVE('',#160,#161,#179,.T.);
#132=EDGE_CURVE('',#162,#162,#180,.T.);
#133=EDGE_CURVE('',#160,#159,#43,.T.);
#134=EDGE_CURVE('',#158,#161,#44,.T.);
#135=EDGE_CURVE('',#163,#164,#24,.T.);
#136=EDGE_CURVE('',#163,#165,#181,.T.);
#137=EDGE_CURVE('',#166,#165,#25,.T.);
#138=EDGE_CURVE('',#166,#164,#182,.T.);
#139=EDGE_CURVE('',#167,#168,#183,.T.);
#140=EDGE_CURVE('',#168,#165,#26,.T.);
#141=EDGE_CURVE('',#167,#163,#27,.T.);
#142=EDGE_CURVE('',#168,#169,#184,.F.);
#143=EDGE_CURVE('',#167,#170,#185,.F.);
#144=EDGE_CURVE('',#169,#170,#186,.T.);
#145=EDGE_CURVE('',#164,#170,#28,.T.);
#146=EDGE_CURVE('',#166,#169,#29,.T.);
#147=EDGE_CURVE('',#171,#171,#187,.T.);
#148=EDGE_CURVE('',#163,#164,#45,.T.);
#149=EDGE_CURVE('',#172,#172,#188,.T.);
#150=EDGE_CURVE('',#165,#166,#46,.T.);
#151=EDGE_CURVE('',#173,#173,#189,.T.);
#152=EDGE_CURVE('',#174,#174,#190,.T.);
#153=VERTEX_POINT('',#398);
#154=VERTEX_POINT('',#399);
#155=VERTEX_POINT('',#401);
#156=VERTEX_POINT('',#403);
#157=VERTEX_POINT('',#406);
#158=VERTEX_POINT('',#409);
#159=VERTEX_POINT('',#411);
#160=VERTEX_POINT('',#415);
#161=VERTEX_POINT('',#417);
#162=VERTEX_POINT('',#421);
#163=VERTEX_POINT('',#438);
#164=VERTEX_POINT('',#439);
#165=VERTEX_POINT('',#441);
#166=VERTEX_POINT('',#455);
#167=VERTEX_POINT('',#459);
#168=VERTEX_POINT('',#460);
#169=VERTEX_POINT('',#473);
#170=VERTEX_POINT('',#475);
#171=VERTEX_POINT('',#490);
#172=VERTEX_POINT('',#494);
#173=VERTEX_POINT('',#503);
#174=VERTEX_POINT('',#506);
#175=CIRCLE('',#282,8.50000000000006);
#176=CIRCLE('',#283,8.50000000000006);
#177=CIRCLE('',#284,6.90000000000009);
#178=CIRCLE('',#286,8.50000000000006);
#179=CIRCLE('',#288,8.50000000000006);
#180=CIRCLE('',#290,5.);
#181=CIRCLE('',#292,6.89999999999999);
#182=CIRCLE('',#293,6.89999999999999);
#183=CIRCLE('',#295,12.1078665856591);
#184=CIRCLE('',#297,12.9783473524174);
#185=CIRCLE('',#298,12.9783473524174);
#186=CIRCLE('',#299,12.1078665856591);
#187=CIRCLE('',#302,5.);
#188=CIRCLE('',#304,5.);
#189=CIRCLE('',#311,4.3235);
#190=CIRCLE('',#313,4.3235);
#191=EDGE_LOOP('',(#57,#58,#59,#60));
#192=EDGE_LOOP('',(#61));
#193=EDGE_LOOP('',(#62,#63,#64,#65));
#194=EDGE_LOOP('',(#66,#67,#68,#69));
#195=EDGE_LOOP('',(#70));
#196=EDGE_LOOP('',(#71,#72,#73,#74));
#197=EDGE_LOOP('',(#75));
#198=EDGE_LOOP('',(#76,#77,#78,#79));
#199=EDGE_LOOP('',(#80,#81,#82,#83));
#200=EDGE_LOOP('',(#84,#85,#86,#87));
#201=EDGE_LOOP('',(#88,#89,#90,#91));
#202=EDGE_LOOP('',(#92));
#203=EDGE_LOOP('',(#93,#94,#95,#96));
#204=EDGE_LOOP('',(#97));
#205=EDGE_LOOP('',(#98,#99,#100,#101));
#206=EDGE_LOOP('',(#102));
#207=EDGE_LOOP('',(#103));
#208=EDGE_LOOP('',(#104,#105));
#209=EDGE_LOOP('',(#106,#107));
#210=EDGE_LOOP('',(#108,#109,#110,#111));
#211=EDGE_LOOP('',(#112,#113,#114,#115));
#212=EDGE_LOOP('',(#116));
#213=EDGE_LOOP('',(#117));
#214=EDGE_LOOP('',(#118));
#215=EDGE_LOOP('',(#119));
#216=EDGE_LOOP('',(#120));
#217=FACE_BOUND('',#191,.T.);
#218=FACE_BOUND('',#192,.T.);
#219=FACE_BOUND('',#193,.T.);
#220=FACE_BOUND('',#194,.T.);
#221=FACE_BOUND('',#195,.T.);
#222=FACE_BOUND('',#196,.T.);
#223=FACE_BOUND('',#197,.T.);
#224=FACE_BOUND('',#198,.T.);
#225=FACE_BOUND('',#199,.T.);
#226=FACE_BOUND('',#200,.T.);
#227=FACE_BOUND('',#201,.T.);
#228=FACE_BOUND('',#202,.T.);
#229=FACE_BOUND('',#203,.T.);
#230=FACE_BOUND('',#204,.T.);
#231=FACE_BOUND('',#205,.T.);
#232=FACE_BOUND('',#206,.T.);
#233=FACE_BOUND('',#207,.T.);
#234=FACE_BOUND('',#208,.T.);
#235=FACE_BOUND('',#209,.T.);
#236=FACE_BOUND('',#210,.T.);
#237=FACE_BOUND('',#211,.T.);
#238=FACE_BOUND('',#212,.T.);
#239=FACE_BOUND('',#213,.T.);
#240=FACE_BOUND('',#214,.T.);
#241=FACE_BOUND('',#215,.T.);
#242=FACE_BOUND('',#216,.T.);
#243=PLANE('',#281);
#244=PLANE('',#289);
#245=PLANE('',#301);
#246=PLANE('',#303);
#247=PLANE('',#308);
#248=PLANE('',#309);
#249=PLANE('',#310);
#250=ADVANCED_FACE('',(#217,#218),#243,.F.);
#251=ADVANCED_FACE('',(#219),#30,.T.);
#252=ADVANCED_FACE('',(#220),#31,.T.);
#253=ADVANCED_FACE('',(#221,#222),#244,.F.);
#254=ADVANCED_FACE('',(#223,#224),#32,.T.);
#255=ADVANCED_FACE('',(#225),#21,.T.);
#256=ADVANCED_FACE('',(#226),#20,.T.);
#257=ADVANCED_FACE('',(#227),#22,.T.);
#258=ADVANCED_FACE('',(#228,#229),#245,.T.);
#259=ADVANCED_FACE('',(#230,#231),#246,.F.);
#260=ADVANCED_FACE('',(#232,#233),#33,.F.);
#261=ADVANCED_FACE('',(#234),#34,.F.);
#262=ADVANCED_FACE('',(#235),#35,.F.);
#263=ADVANCED_FACE('',(#236),#247,.T.);
#264=ADVANCED_FACE('',(#237),#248,.T.);
#265=ADVANCED_FACE('',(#238),#249,.T.);
#266=ADVANCED_FACE('',(#239,#240),#36,.F.);
#267=ADVANCED_FACE('',(#241,#242),#23,.F.);
#268=CLOSED_SHELL('',(#250,#251,#252,#253,#254,#255,#256,#257,#258,#259,
#260,#261,#262,#263,#264,#265,#266,#267));
#269=STYLED_ITEM('',(#270),#277);
#270=PRESENTATION_STYLE_ASSIGNMENT((#271));
#271=SURFACE_STYLE_USAGE(.BOTH.,#272);
#272=SURFACE_SIDE_STYLE('',(#273));
#273=SURFACE_STYLE_FILL_AREA(#274);
#274=FILL_AREA_STYLE('',(#275));
#275=FILL_AREA_STYLE_COLOUR('',#276);
#276=COLOUR_RGB('',0.689999997615814,0.689999997615814,0.689999997615814);
#277=MANIFOLD_SOLID_BREP('FJ-M10x1.25BJ',#268);
#278=SHAPE_DEFINITION_REPRESENTATION(#514,#279);
#279=SHAPE_REPRESENTATION('FJ-M10x1.25BJ',(#280),#509);
#280=AXIS2_PLACEMENT_3D('',#395,#315,#316);
#281=AXIS2_PLACEMENT_3D('',#396,#317,#318);
#282=AXIS2_PLACEMENT_3D('',#397,#319,#320);
#283=AXIS2_PLACEMENT_3D('',#402,#322,#323);
#284=AXIS2_PLACEMENT_3D('',#405,#325,#326);
#285=AXIS2_PLACEMENT_3D('',#407,#327,#328);
#286=AXIS2_PLACEMENT_3D('',#412,#331,#332);
#287=AXIS2_PLACEMENT_3D('',#413,#333,#334);
#288=AXIS2_PLACEMENT_3D('',#418,#337,#338);
#289=AXIS2_PLACEMENT_3D('',#419,#339,#340);
#290=AXIS2_PLACEMENT_3D('',#420,#341,#342);
#291=AXIS2_PLACEMENT_3D('',#424,#345,#346);
#292=AXIS2_PLACEMENT_3D('',#440,#347,#348);
#293=AXIS2_PLACEMENT_3D('',#456,#349,#350);
#294=AXIS2_PLACEMENT_3D('',#457,#351,#352);
#295=AXIS2_PLACEMENT_3D('',#458,#353,#354);
#296=AXIS2_PLACEMENT_3D('',#471,#355,#356);
#297=AXIS2_PLACEMENT_3D('',#472,#357,#358);
#298=AXIS2_PLACEMENT_3D('',#474,#359,#360);
#299=AXIS2_PLACEMENT_3D('',#476,#361,#362);
#300=AXIS2_PLACEMENT_3D('',#477,#363,#364);
#301=AXIS2_PLACEMENT_3D('',#488,#365,#366);
#302=AXIS2_PLACEMENT_3D('',#489,#367,#368);
#303=AXIS2_PLACEMENT_3D('',#492,#370,#371);
#304=AXIS2_PLACEMENT_3D('',#493,#372,#373);
#305=AXIS2_PLACEMENT_3D('',#496,#375,#376);
#306=AXIS2_PLACEMENT_3D('',#497,#377,#378);
#307=AXIS2_PLACEMENT_3D('',#498,#379,#380);
#308=AXIS2_PLACEMENT_3D('',#499,#381,#382);
#309=AXIS2_PLACEMENT_3D('',#500,#383,#384);
#310=AXIS2_PLACEMENT_3D('',#501,#385,#386);
#311=AXIS2_PLACEMENT_3D('',#502,#387,#388);
#312=AXIS2_PLACEMENT_3D('',#504,#389,#390);
#313=AXIS2_PLACEMENT_3D('',#505,#391,#392);
#314=AXIS2_PLACEMENT_3D('',#507,#393,#394);
#315=DIRECTION('',(0.,0.,1.));
#316=DIRECTION('',(1.,0.,0.));
#317=DIRECTION('',(1.17445080290926E-16,-1.,0.));
#318=DIRECTION('',(1.,1.17445080290926E-16,0.));
#319=DIRECTION('',(1.17445080290926E-16,-1.,0.));
#320=DIRECTION('',(1.,1.17445080290926E-16,0.));
#321=DIRECTION('',(1.,0.,0.));
#322=DIRECTION('',(1.17445080290926E-16,-1.,0.));
#323=DIRECTION('',(1.,1.17445080290926E-16,0.));
#324=DIRECTION('',(-1.,0.,0.));
#325=DIRECTION('',(1.17445080290926E-16,-1.,0.));
#326=DIRECTION('',(1.,1.17445080290926E-16,0.));
#327=DIRECTION('',(1.17445080290926E-16,-1.,0.));
#328=DIRECTION('',(1.,1.17445080290926E-16,0.));
#329=DIRECTION('',(1.17445080290926E-16,-1.,0.));
#330=DIRECTION('',(1.17445080290926E-16,-1.,0.));
#331=DIRECTION('',(1.17445080290926E-16,-1.,0.));
#332=DIRECTION('',(1.,1.17445080290926E-16,0.));
#333=DIRECTION('',(1.17445080290926E-16,-1.,0.));
#334=DIRECTION('',(1.,1.17445080290926E-16,0.));
#335=DIRECTION('',(1.17445080290926E-16,-1.,0.));
#336=DIRECTION('',(1.17445080290926E-16,-1.,0.));
#337=DIRECTION('',(1.17445080290926E-16,-1.,0.));
#338=DIRECTION('',(1.,1.17445080290926E-16,0.));
#339=DIRECTION('',(-1.17445080290926E-16,1.,0.));
#340=DIRECTION('',(-1.,-1.17445080290926E-16,0.));
#341=DIRECTION('',(6.12323399573677E-17,-1.,0.));
#342=DIRECTION('',(1.,6.12323399573677E-17,0.));
#343=DIRECTION('',(-1.,-1.17445080290926E-16,0.));
#344=DIRECTION('',(1.,1.17445080290926E-16,0.));
#345=DIRECTION('',(1.17445080290926E-16,-1.,0.));
#346=DIRECTION('',(1.,1.17445080290926E-16,0.));
#347=DIRECTION('',(0.,-1.,0.));
#348=DIRECTION('',(0.,0.,-1.));
#349=DIRECTION('',(0.,-1.,0.));
#350=DIRECTION('',(0.,0.,-1.));
#351=DIRECTION('',(0.,1.,0.));
#352=DIRECTION('',(0.,0.,1.));
#353=DIRECTION('',(0.,-1.,0.));
#354=DIRECTION('',(0.,0.,-1.));
#355=DIRECTION('',(0.,-1.,0.));
#356=DIRECTION('',(1.,0.,0.));
#357=DIRECTION('',(0.,0.,1.));
#358=DIRECTION('',(1.,0.,0.));
#359=DIRECTION('',(0.,0.,1.));
#360=DIRECTION('',(1.,0.,0.));
#361=DIRECTION('',(0.,-1.,0.));
#362=DIRECTION('',(0.,0.,-1.));
#363=DIRECTION('',(0.,1.,0.));
#364=DIRECTION('',(0.,0.,1.));
#365=DIRECTION('',(0.,0.,1.));
#366=DIRECTION('',(1.,0.,0.));
#367=DIRECTION('',(0.,0.,1.));
#368=DIRECTION('',(1.,0.,0.));
#369=DIRECTION('',(1.,0.,0.));
#370=DIRECTION('',(0.,0.,1.));
#371=DIRECTION('',(1.,0.,0.));
#372=DIRECTION('',(0.,0.,1.));
#373=DIRECTION('',(1.,0.,0.));
#374=DIRECTION('',(1.,0.,0.));
#375=DIRECTION('',(0.,0.,-1.));
#376=DIRECTION('',(-1.,0.,0.));
#377=DIRECTION('',(-1.,0.,0.));
#378=DIRECTION('',(0.,0.,1.));
#379=DIRECTION('',(-1.,0.,0.));
#380=DIRECTION('',(0.,0.,1.));
#381=DIRECTION('',(0.,0.,-1.));
#382=DIRECTION('',(-1.,0.,0.));
#383=DIRECTION('',(0.,0.,1.));
#384=DIRECTION('',(1.,0.,0.));
#385=DIRECTION('',(6.12323399573677E-17,-1.,0.));
#386=DIRECTION('',(1.,6.12323399573677E-17,0.));
#387=DIRECTION('',(6.12323399573677E-17,-1.,0.));
#388=DIRECTION('',(1.,6.12323399573677E-17,0.));
#389=DIRECTION('',(6.12323399573677E-17,-1.,0.));
#390=DIRECTION('',(1.,6.12323399573677E-17,0.));
#391=DIRECTION('',(6.12323399573677E-17,-1.,0.));
#392=DIRECTION('',(1.,6.12323399573677E-17,0.));
#393=DIRECTION('',(6.12323399573677E-17,-1.,0.));
#394=DIRECTION('',(1.,6.12323399573677E-17,0.));
#395=CARTESIAN_POINT('',(0.,0.,0.));
#396=CARTESIAN_POINT('',(6.90000000000003,-33.5,0.));
#397=CARTESIAN_POINT('',(-5.47881299557168E-14,-33.5,0.));
#398=CARTESIAN_POINT('',(4.82182538049652,-33.4999999999999,-7.));
#399=CARTESIAN_POINT('',(4.82182538049652,-33.4999999999999,7.));
#400=CARTESIAN_POINT('',(-5.49636243346457,-33.4999999999999,-7.));
#401=CARTESIAN_POINT('',(-4.82182538049663,-33.4999999999999,-7.));
#402=CARTESIAN_POINT('',(-5.47881299557168E-14,-33.5,0.));
#403=CARTESIAN_POINT('',(-4.82182538049663,-33.4999999999999,7.));
#404=CARTESIAN_POINT('',(5.49636243346446,-33.4999999999999,7.));
#405=CARTESIAN_POINT('',(-5.47881299557168E-14,-33.5,0.));
#406=CARTESIAN_POINT('',(6.90000000000003,-33.5,0.));
#407=CARTESIAN_POINT('',(-5.35549566126621E-14,-43.9999999999999,0.));
#408=CARTESIAN_POINT('',(-4.82182538049663,-43.9999999999999,7.));
#409=CARTESIAN_POINT('',(-4.82182538049663,-44.,7.));
#410=CARTESIAN_POINT('',(-4.82182538049663,-43.9999999999999,-7.));
#411=CARTESIAN_POINT('',(-4.82182538049663,-43.9999999999999,-7.));
#412=CARTESIAN_POINT('',(-5.35549566126621E-14,-44.,0.));
#413=CARTESIAN_POINT('',(-5.35549566126621E-14,-43.9999999999999,0.));
#414=CARTESIAN_POINT('',(4.82182538049652,-43.9999999999999,-7.));
#415=CARTESIAN_POINT('',(4.82182538049652,-44.,-7.));
#416=CARTESIAN_POINT('',(4.82182538049652,-43.9999999999999,7.));
#417=CARTESIAN_POINT('',(4.82182538049652,-43.9999999999999,7.));
#418=CARTESIAN_POINT('',(-5.35549566126621E-14,-44.,0.));
#419=CARTESIAN_POINT('',(8.5,-44.,0.));
#420=CARTESIAN_POINT('',(2.69422295812418E-15,-44.,0.));
#421=CARTESIAN_POINT('',(5.,-44.,0.));
#422=CARTESIAN_POINT('',(8.5,-44.,-7.));
#423=CARTESIAN_POINT('',(8.5,-44.,7.));
#424=CARTESIAN_POINT('',(-5.35549566126621E-14,-43.9999999999999,0.));
#425=CARTESIAN_POINT('',(-4.47744346697994,-16.,5.25000000000004));
#426=CARTESIAN_POINT('',(-4.47744346697994,-16.2389553632644,5.25000000000003));
#427=CARTESIAN_POINT('',(-4.3522351429556,-16.700336176746,5.35962686786192));
#428=CARTESIAN_POINT('',(-3.75862061928044,-17.3203970355758,5.81260925866053));
#429=CARTESIAN_POINT('',(-2.74208471528877,-17.5988512619126,6.38553084955736));
#430=CARTESIAN_POINT('',(-1.39433210509336,-17.6542852874447,6.80544897712192));
#431=CARTESIAN_POINT('',(-0.00330049965846801,-17.6478633348093,6.94748106722392));
#432=CARTESIAN_POINT('',(1.40025522929795,-17.654261373318,6.80462611410354));
#433=CARTESIAN_POINT('',(2.74052104164405,-17.5986730835513,6.3856325620622));
#434=CARTESIAN_POINT('',(3.75752848433763,-17.3211523583646,5.81344821340716));
#435=CARTESIAN_POINT('',(4.35209044822292,-16.7007635684969,5.35974944457622));
#436=CARTESIAN_POINT('',(4.47744346697983,-16.2391644253191,5.25000000000003));
#437=CARTESIAN_POINT('',(4.47744346697983,-16.,5.25000000000004));
#438=CARTESIAN_POINT('',(-4.47744346697999,-16.,5.25000000000004));
#439=CARTESIAN_POINT('',(4.47744346697977,-16.,5.25));
#440=CARTESIAN_POINT('',(0.,-16.,0.));
#441=CARTESIAN_POINT('',(-4.47744346697994,-16.,-5.25000000000004));
#442=CARTESIAN_POINT('',(4.47744346697983,-16.,-5.25000000000004));
#443=CARTESIAN_POINT('',(4.47744346697983,-16.2389553632644,-5.25000000000003));
#444=CARTESIAN_POINT('',(4.35223514295549,-16.700336176746,-5.35962686786191));
#445=CARTESIAN_POINT('',(3.75862061928032,-17.3203970355758,-5.81260925866053));
#446=CARTESIAN_POINT('',(2.74208471528866,-17.5988512619126,-6.38553084955736));
#447=CARTESIAN_POINT('',(1.39433210509325,-17.6542852874447,-6.80544897712192));
#448=CARTESIAN_POINT('',(0.00330049965835587,-17.6478633348093,-6.94748106722392));
#449=CARTESIAN_POINT('',(-1.40025522929806,-17.654261373318,-6.80462611410354));
#450=CARTESIAN_POINT('',(-2.74052104164416,-17.5986730835513,-6.3856325620622));
#451=CARTESIAN_POINT('',(-3.75752848433774,-17.3211523583646,-5.81344821340716));
#452=CARTESIAN_POINT('',(-4.35209044822304,-16.7007635684969,-5.35974944457622));
#453=CARTESIAN_POINT('',(-4.47744346697994,-16.2391644253191,-5.25000000000004));
#454=CARTESIAN_POINT('',(-4.47744346697994,-16.,-5.25000000000004));
#455=CARTESIAN_POINT('',(4.47744346697983,-16.,-5.25000000000004));
#456=CARTESIAN_POINT('',(0.,-16.,0.));
#457=CARTESIAN_POINT('',(0.,-7.02848253493452,0.));
#458=CARTESIAN_POINT('',(0.,-7.02848253493452,0.));
#459=CARTESIAN_POINT('',(-10.910450644044,-7.02848253493452,5.25));
#460=CARTESIAN_POINT('',(-10.910450644044,-7.02848253493452,-5.25));
#461=CARTESIAN_POINT('',(-10.910450644044,-7.02848253493451,-5.25));
#462=CARTESIAN_POINT('',(-9.91279131481625,-8.57716858729461,-5.25));
#463=CARTESIAN_POINT('',(-7.87912756953195,-11.6501190757583,-5.25));
#464=CARTESIAN_POINT('',(-5.70686066914543,-14.6256847590693,-5.25));
#465=CARTESIAN_POINT('',(-4.47744346697984,-15.9999999999999,-5.25));
#466=CARTESIAN_POINT('',(-10.910450644044,-7.02848253493451,5.25));
#467=CARTESIAN_POINT('',(-9.91279131481625,-8.57716858729461,5.25));
#468=CARTESIAN_POINT('',(-7.87912756953196,-11.6501190757583,5.25));
#469=CARTESIAN_POINT('',(-5.70686066914544,-14.6256847590693,5.25));
#470=CARTESIAN_POINT('',(-4.47744346697986,-15.9999999999999,5.25));
#471=CARTESIAN_POINT('',(8.67361737988404E-16,0.,0.));
#472=CARTESIAN_POINT('',(8.67361737988404E-16,0.,-5.25));
#473=CARTESIAN_POINT('',(10.910450644044,-7.02848253493451,-5.25));
#474=CARTESIAN_POINT('',(8.67361737988404E-16,0.,5.25));
#475=CARTESIAN_POINT('',(10.910450644044,-7.02848253493451,5.25));
#476=CARTESIAN_POINT('',(0.,-7.02848253493452,0.));
#477=CARTESIAN_POINT('',(0.,-7.02848253493452,0.));
#478=CARTESIAN_POINT('',(4.47744346697977,-16.,5.25));
#479=CARTESIAN_POINT('',(5.70197534265526,-14.6311458658771,5.25));
#480=CARTESIAN_POINT('',(7.88331432358593,-11.6448910124665,5.25));
#481=CARTESIAN_POINT('',(9.91278222290793,-8.57718270084138,5.25));
#482=CARTESIAN_POINT('',(10.910450644044,-7.02848253493452,5.25));
#483=CARTESIAN_POINT('',(4.4774434669798,-16.,-5.25));
#484=CARTESIAN_POINT('',(5.70197534265527,-14.6311458658771,-5.25));
#485=CARTESIAN_POINT('',(7.88331432358593,-11.6448910124665,-5.25));
#486=CARTESIAN_POINT('',(9.91278222290793,-8.57718270084138,-5.25));
#487=CARTESIAN_POINT('',(10.910450644044,-7.02848253493453,-5.25));
#488=CARTESIAN_POINT('',(0.,1.32137139771671E-16,5.25));
#489=CARTESIAN_POINT('',(0.,0.,5.25));
#490=CARTESIAN_POINT('',(5.,0.,5.25));
#491=CARTESIAN_POINT('',(6.89999999999999,-16.,5.25));
#492=CARTESIAN_POINT('',(0.,1.32137139771671E-16,-5.25));
#493=CARTESIAN_POINT('',(0.,0.,-5.25));
#494=CARTESIAN_POINT('',(5.,0.,-5.25));
#495=CARTESIAN_POINT('',(6.89999999999999,-16.,-5.25));
#496=CARTESIAN_POINT('',(0.,0.,5.25));
#497=CARTESIAN_POINT('',(7.,-16.,-6.90000000000003));
#498=CARTESIAN_POINT('',(7.,-16.,6.90000000000003));
#499=CARTESIAN_POINT('',(-5.49636243346457,-33.4999999999999,-7.));
#500=CARTESIAN_POINT('',(5.49636243346446,-33.4999999999999,7.));
#501=CARTESIAN_POINT('',(1.53080849893419E-15,-25.,0.));
#502=CARTESIAN_POINT('',(1.53080849893419E-15,-25.,0.));
#503=CARTESIAN_POINT('',(4.3235,-25.,0.));
#504=CARTESIAN_POINT('',(2.69422295812418E-15,-44.,0.));
#505=CARTESIAN_POINT('',(2.65279928014302E-15,-43.3235,0.));
#506=CARTESIAN_POINT('',(4.3235,-43.3235,0.));
#507=CARTESIAN_POINT('',(2.65279928014302E-15,-43.3235,0.));
#508=MECHANICAL_DESIGN_GEOMETRIC_PRESENTATION_REPRESENTATION('',(#269),
#509);
#509=(
GEOMETRIC_REPRESENTATION_CONTEXT(3)
GLOBAL_UNCERTAINTY_ASSIGNED_CONTEXT((#510))
GLOBAL_UNIT_ASSIGNED_CONTEXT((#513,#512,#511))
REPRESENTATION_CONTEXT('FJ-M10x1.25BJ','TOP_LEVEL_ASSEMBLY_PART')
);
#510=UNCERTAINTY_MEASURE_WITH_UNIT(LENGTH_MEASURE(0.005),#513,
'DISTANCE_ACCURACY_VALUE','Maximum Tolerance applied to model');
#511=(
NAMED_UNIT(*)
SI_UNIT($,.STERADIAN.)
SOLID_ANGLE_UNIT()
);
#512=(
NAMED_UNIT(*)
PLANE_ANGLE_UNIT()
SI_UNIT($,.RADIAN.)
);
#513=(
LENGTH_UNIT()
NAMED_UNIT(*)
SI_UNIT(.MILLI.,.METRE.)
);
#514=PRODUCT_DEFINITION_SHAPE('','',#515);
#515=PRODUCT_DEFINITION('','',#517,#516);
#516=DESIGN_CONTEXT('',#523,'design');
#517=PRODUCT_DEFINITION_FORMATION_WITH_SPECIFIED_SOURCE('','',#519,
 .NOT_KNOWN.);
#518=PRODUCT_RELATED_PRODUCT_CATEGORY('','',(#519));
#519=PRODUCT('FJ-M10x1.25BJ','FJ-M10x1.25BJ','FJ-M10x1.25BJ',(#521));
#520=PRODUCT_CATEGORY('','');
#521=MECHANICAL_CONTEXT('',#523,'mechanical');
#522=APPLICATION_PROTOCOL_DEFINITION('international standard',
'config_control_design',2010,#523);
#523=APPLICATION_CONTEXT(
'configuration controlled 3D designs of mechanical parts and assemblie
s');
ENDSEC;
END-ISO-10303-21;
